top separator

Home

Forum

What's New

Submit a Tab

FAQ

Links

Contact Us

Link to Us

MuSpy.com

MetalTabs.com logo

Bands

0-9

A

B

C

D

E

F

G

H

I

J

K

L

M

N

O

P

Q

R

S

T

U

V

W

X

Y

Z

Search

What

Where
 

Die Apokalyptischen Reiter - "Eye Of A Rose" Guitar Tab

Plain Text Version
More Die Apokalyptischen Reiter Tabs

Hits: 3313
Rated: 5.00 out of 5 (1 vote)
Updated: 2004-08-23 16:08:53

 

By:

sendpm.gif

email.gif

Important note
This tab is available online because we obtained explicit permission from Die Apokalyptischen Reiter or their label.


#----------------------------------PLEASE NOTE---------------------------------#
#This file is the author's own work and represents their interpretation of the #
#song. You may only use this file for private study, scholarship, or research. #
#Unless specified otherwise, this is NOT an official tab from the band members.#
#------------------------------------------------------------------------------#

  Visit MetalTabs.com for more metal tablature
  
                        /  Die Apokalyptischen Reiter  \
                       /--------------------------------\
                      /         "Eve of a Rose"          \


Album: Soft and Stronger

Copyright (c)  Nuclear Blast Records (1997)

Transcribed By: Marcus Wenzel
Email:          doombringer88@web.de

.  - palm mute           /  - slide up to
\  - slide down to       ~  - vibrato
h  - hammer on           b  - Bend
p  - pull off            Suffixes for bend
t  - tap                 f  - full bend    h - half bend
ph - pinched harmonic    q  - quarter bend t - tap bend
*  - see comment         ^  - Hold bend    r release bend
x  - Stuccatto           ~  - vibrato bend
,  - slight palm mute    () - ghost note, sustained note
"  - tremolo note        <> - Trill

Tunning E A D G B E

Rhythm fig.1
e|--------------------------------------|--------------------------------------|
B|--------------------------------------|--------------------------------------|
G|--------------------------------------|--------------------------------------|
D|-----------------------------13-12----|-----------------------12-10----------|
A|-10---10-12-13-12---12-12-13-------10-|-10---10-12-13-12---12-------13-12-10-|
E|--------------------------------------|--------------------------------------|

Rhythm fig.2
e|--------------------------------|----------------------------------------|
B|--------------------------------|----------------------------------------|
G|--------------------------------|----------------------------------------|
D|--------------------------------|--------------------8-7-8-10-8-7-8-7----|
A|--------------------8-7-5-7-8-7-|-------------------------------------10-|
E|-10---10-10-8-6---6-------------|-10---10-10-8-6---6---------------------|

Rhythm fig.1
Rhythm fig.2
Rhythm fig.1
Rhythm fig.2
Rhythm fig.1


That's it! Please Rate this Tab, and praise Wotan!!!

  Visit MetalTabs.com for more metal tablature

bottom separator

Contact Us | Privacy Policy | Disclaimer | Legal Notice
Copyright © 2001-2014 MetalTabs.com. All Rights Reserved.