top separator

Home

Forum

FAQ

Contact Us

Link to Us

MetalTabs.com logo

Bands

0-9

A

B

C

D

E

F

G

H

I

J

K

L

M

N

O

P

Q

R

S

T

U

V

W

X

Y

Z

The Gathering - "Locked Away" Guitar Tab

Plain Text Version
More The Gathering Tabs

Hits: 6332
Rated: 4.62 out of 5 (8 votes)
Updated: 2004-08-23 16:08:11

By:


#----------------------------------PLEASE NOTE---------------------------------#
#This file is the author's own work and represents their interpretation of the #
#song. You may only use this file for private study, scholarship, or research. #
#Unless specified otherwise, this is NOT an official tab from the band members.#
#------------------------------------------------------------------------------#

  Visit MetalTabs.com for more metal tablature
  
Band:  The Gathering
Album: Sleepy Buildings
Song:  Locked Away

Copyright : Century Media 2004


Version 1.0 - 22/08/04

Transcribed By: Iori_Sama
Email:          poppysdead@hotmail.com


.  - palm mute           /  - slide up to
\  - slide down to       ~  - vibrato
h  - hammer on           b  - Bend
p  - pull off            Suffixes for bend
t  - tap                 f  - full bend    h - half bend
ph - pinched harmonic    q  - quarter bend t - tap bend
*  - see comment         ^  - Hold bend    r release bend
x  - Stuccatto           ~  - vibrato bend
,  - slight palm mute    () - ghost note, sustained note
"  - tremolo note        <> - Trill


notes: be aware of the riff timing. I donít mention this strumming patterns but
this song is quite easy to play so you can figure it out while listening
to the song...

Tuning : Standard EADGBe

--------------
Intro + Verse:
--------------

|--0----0----0----0--------|
|--0----0----0----0--------|
|--7----6----5----4---\7---|
|--7----6----5----4---\7---|  etc...
|--5----4----3----2---\5---|
|--------------------------|


--------
Chorus :
--------

|---0------0-----0-----0--------|
|---0------0-----0-----0--------|
|--\9-----\12---/10---/9----7---|
|--\9-----\12---/10---/9----7---|     (x2)
|--\7-----\10---/8----/7----5---|
|---0------0-----0-----0--------|

Locked Away...........

--------
Bridge :
--------

|---0-----------0-----0-----0---|
|---0-----------0-----0-----0---|
|---4-----------2-----4-----5---|
|---4-----------2-----4-----5---|
|---2-----------0-----2-----3---|
|-------------------------------|

just so what you'll be scared of me

|---0-----------0-----0-----0----0---0----0------|
|---0-----------0-----0-----0----0---0----0------|
|---4-----------2-----4-----3----2---0----0------|
|---4-----------2-----5-----4----3---2----3------|
|---2-----------0-----5-----4----3---2----3------|
|---------------------3-----2----1---0----0------|
                               |-------|
                                Repeat this part 6 times (i think)

Behind my power I will hide all my fears.....
--------------------------------------------------------------------------------

This is it, just repeat the Verse + Chorus + Bridge and you have the whole song.


END

  Visit MetalTabs.com for more metal tablature

bottom separator

Contact Us | Privacy Policy | Disclaimer
Copyright © 2001-2014 MetalTabs.com. All Rights Reserved.