top separator

Home

Forum

What's New

Submit a Tab

FAQ

Links

Contact Us

Link to Us

MuSpy.com

MetalTabs.com logo

Bands

0-9

A

B

C

D

E

F

G

H

I

J

K

L

M

N

O

P

Q

R

S

T

U

V

W

X

Y

Z

Search

What

Where
 

Falkenbach - "...Into the Ardent Awaited Land" Guitar Tab

Plain Text Version
More Falkenbach Tabs

Hits: 4078
Rated: 5.00 out of 5 (5 votes)
Updated: 2004-08-21 14:48:07

 

By:

sendpm.gif

email.gif

Important note
We did our best to reach Falkenbach and ask for their permission to publish this tab. Unfortunately they did not respond to our requests or we could not find a way to contact them. This tab is available online until Falkenbach tells us to take it down.


#----------------------------------PLEASE NOTE---------------------------------#
#This file is the author's own work and represents their interpretation of the #
#song. You may only use this file for private study, scholarship, or research. #
#Unless specified otherwise, this is NOT an official tab from the band members.#
#------------------------------------------------------------------------------#

  Visit MetalTabs.com for more metal tablature
  
Band:  Falkenbach
Album: En Their Medh Riki Fara... (1996)
Song:  ...Into The Ardent Awaited Land

Copyright (c)  Napalm Records (1996)

Transcribed By: Marcus Wenzel
Email:          doombringer88@web.de

.  - palm mute           /  - slide up to
\  - slide down to       ~  - vibrato
h  - hammer on           b  - Bend
p  - pull off            Suffixes for bend
t  - tap                 f  - full bend    h - half bend
ph - pinched harmonic    q  - quarter bend t - tap bend
*  - see comment         ^  - Hold bend    r release bend
x  - Stuccatto           ~  - vibrato bend
,  - slight palm mute    () - ghost note, sustained note
"  - tremolo note        <> - Trill

Tunning E A D G B E
The whole song is played with heavy distortion

Riff1:

e|---------------------------------|----------------------------------|
B|---------------------------------|----------------------------------|
G|---------------------------------|----------------------------------| 4 times
D|-7---7-7-7---7-7-7---7-7-7-9-10--|--7---7-7-7---7-7-7---7-7-8-6-6-8-|
A|-5---5-5-5---5-5-5---5-5-5-7--8--|--5---5-5-5---5-5-5---5-5-6-4-4-6-|
E|---------------------------------|----------------------------------|


Verse:

e|----------------------------------------------------------------------|
B|----------------------------------------------------------------------|
G|----------------------------------------------------------------------|
D|-7---7-7-7---7-7-7---7-7-7---7-7-10---10-10-10---10-10-7---7-7-7----8-|
A|-5---5-5-5---5-5-5---5-5-5---5-5--8----8--8--8----8--8-4---4-4-4----6-|
E|----------------------------------------------------------------------|
   far way beyond the horizon   above the shadows of the horses hoofs a ...

Riff2:

e|----------------------------------------------------------------------|
B|----------------------------------------------------------------------|
G|----------------------------------------------------------------------|
D|-7---7-7-7---7-7-7---7-7-7---7-7-10---10-10-10---10-10-6---6-6-6----8-|
A|-5---5-5-5---5-5-5---5-5-5---5-5--8----8--8--8----8--8-4---4-4-4----6-|
E|----------------------------------------------------------------------|

Bridge:

e|---------------------------------|------------------------------------|
B|---------------------------------|------------------------------------|
G|---------------------------------|------------------------------------| many
D|-7---7-7-7---7-7-7---7-7-7-9-10--|--5---5-5-5---5/7-5-3---3/5-3-2---5-| times
A|-5---5-5-5---5-5-5---5-5-5-7--8--|--3---3-3-3---3/5-3-1---1/3-1-0---3-|
E|---------------------------------|------------------------------------|


Outro:

e|--------------------------------|-----------------------------------------|
B|--------------------------------|-----------------------------------------|
G|-7~--7-9-10---10-9-7---5~--5-6~-|-7~--7-9-10---10-9-7---/5~-5\2---/6~-6\2-|
D|--------------------------------|-----------------------------------------|
A|-------- play 2 times ----------|------------- play 2 times --------------|
E|--------------------------------|-----------------------------------------|

e|------------|
B|------------|
G|-/7~~~~~~~~-| Riff2 is played
D|------------| under the outro
A|- fade out -|
E|------------|



Riff1 (0:00)
Verse (0:30)
Riff2 (0:59)
Verse (1:14)
Riff2 (1:44)
Riff1 (1:58)
Verse (2:27)
Riff2 (2:57)
Bridge (3:12)
Verse (4:26)
Riff2 (4:55)
Outro (5:10)

Please Rate this Tab!!!

  Visit MetalTabs.com for more metal tablature

bottom separator

Contact Us | Privacy Policy | Disclaimer | Legal Notice
Copyright © 2001-2014 MetalTabs.com. All Rights Reserved.