top separator

Home

Forum

What's New

Submit a Tab

FAQ

Links

Contact Us

Link to Us

MetalTabs.com logo

Bands

0-9

A

B

C

D

E

F

G

H

I

J

K

L

M

N

O

P

Q

R

S

T

U

V

W

X

Y

Z

Search

What

Where
 

Norther - "Everything Is An End" Guitar Tab

Plain Text Version
More Norther Tabs

Hits: 3658
Updated: 2004-08-21 14:43:47

 

By:

sendpm.gif

email.gif

Important note
This tab is available online because we obtained explicit permission from Norther or their label.


#----------------------------------PLEASE NOTE---------------------------------#
#This file is the author's own work and represents their interpretation of the #
#song. You may only use this file for private study, scholarship, or research. #
#Unless specified otherwise, this is NOT an official tab from the band members.#
#------------------------------------------------------------------------------#

  Visit MetalTabs.com for more metal tablature
  
Band :  Norther
Album : Mirror Of Madness
Song :  Everything Is An End

Label : Spinefarm

Tabber : Vader2
http://geocities.com/dark_interpretation         dark_interpretation@yahoo.com
Tuning Regular

Intro

|-----------------|----------------|--------------|
|-----------------|----3---5---3-5-|----3-----5-6-|
|----9---10---9---|----------------|--------------|
|7-7---7----7---7-|3-3---3---3-----|3-3---5-5-----|
|-----------------|----------------|--------------|
|-----------------|----------------|--------------|x3

|-----------------|----------------|--------------|
|-----------------|----3---5---3-5-|----3-33335-6-|
|----9---10---9---|----------------|--------------|
|7-7---7----7---7-|3-3---3---3-----|3-3-----------|
|-----------------|----------------|--------------|
|-----------------|----------------|--------------|            x2

A

|----------------|----------------|----------------|---------------|
|----------------|----------------|----------------|---------------|
|----------------|7---------------|----------------|---------------|
|7---------------|----------------|8---------------|5--------------|
|----------------|5---------------|----------------|---------------|
|5---------------|----------------|6---------------|3--------------|

|----------------|----------------|----------------|---3-----------|
|----------------|----------------|----------------|  ___ ---------|
|----------------|----------------|----------------| | | | 9---7---|
|7-77777777777777|----------------|----------------|10-9-7---------|
|5---------------|8-88888888888-7-|5-55555555555555|---------------|
|----------------|6---------------|3---------------|---------------|

|----------------|-----------------|--------------------|-----------------|
|----------------|-----------------|--------------------|-----------------|
|9-----9---9---9-|7-----10---9---7-|10-----10---10---10-|7-----10---7---9-|
|7-77777-777-777-|7-7777-7-777-777-|-8-8888-8-88-8-88-8-|7-7777-7-777-777-|
|----------------|-----------------|--------------------|-----------------|
|----------------|-----------------|--------------------|-----------------|

|----------------|----------------|----------------|---------------|
|----------------|----------------|----------------|---------------|
|----------------|----------------|----------------|---------------|
|7-77777777777777|----------------|------------5-5-|5-5555555555555|
|5---------------|8-88888888888-7-|8-8888888888----|---------------|
|----------------|6---------------|6---------------|---------------|

|----------------|----------------|----------------|---------------|
|----------------|----------------|----------------|---------------|
|----------------|7---------------|----------------|---------------|
|7---------------|----------------|8-----7----6----|6----7----8----|
|----------------|5---------------|----------------|---------------|
|5---------------|----------------|----------------|---------------|

|----------------|----------------|----------------|---3-----------|
|----------------|----------------|----------------|  ___ ---------|
|----------------|----------------|----------------| | | | 9---7---|
|7-77777777777777|----------------|----------------|10 9 7---------|
|5---------------|8-88888888888-7-|5-55555555555555|---------------|
|----------------|6---------------|3---------------|---------------|

B

|----------------|----------------|----------------|----------------|
|----------------|----------------|----------------|----------------|
|7-----7---5---2-|7-----7---5---2-|7-----7---5-----|7-----7---5-----|
|7-77777-777-222-|7-77777-777-222-|8-88888-777---7-|8-88888-777---7-|
|----------------|----------------|------------777-|------------777-|
|----------------|----------------|----------------|----------------|

|----------------|----------------|----------------|----------------|
|----------------|----------------|----------------|------5555556666|
|7-----7---5-----|7-----7---5-----|----------------|555555----------|
|5-55555-555---7-|5-55555-555---7-|------------7777|----------------|
|------------777-|------------777-|555555888888----|----------------|
|----------------|----------------|----------------|----------------|
|----------------|----------------|----------------|----------------|
|----------------|----------------|----------------|----------------|
|7-----7---5---2-|7-----7---5---2-|7-----7---5-----|7-----7---5-----|
|7-77777-777-222-|7-77777-777-222-|8-88888-777---7-|8-88888-777---7-|
|----------------|----------------|------------777-|------------777-|
|----------------|----------------|----------------|----------------|

|----------------|----------------|----------------|----------------|
|----------------|----------------|------10~-----8-|9----10----9----|
|7-----7---5-----|7-----7---5-----|nh--------------|----------------|
|5-55555-555---7-|5-55555-555---7-|7~--------------|----------------|
|------------777-|------------777-|----------------|----------------|
|----------------|----------------|----------------|----------------|

Chorus


|0~------------5-|0~------------3-|----------------|----------------|
|----------------|----------------|3~--------------|----------------|
|----------------|----------------|--------------5-|2-------3-------|
|----------------|----------------|----------------|----------------|
|7---------------|5---------------|7-------3-------|5-------2---5---|
|5---------------|3---------------|5-------1-------|3-------0---3---|

|0~------------5-|0~------------3-|----------------|--------3-------|
|----------------|----------------|3~------------5-|5~--------------|
|----------------|----------------|----------------|----------------|
|----------------|----------------|----------------|----------------|
|7---------------|5---------------|7-------3-------|5-------2---5---|
|5---------------|3---------------|5-------1-------|3-------0---3---|

|0~------------5-|0~------------3-|----------------|----------------|
|----------------|----------------|3~--------------|----------------|
|----------------|----------------|--------------5-|2-------3-------|
|----------------|----------------|----------------|----------------|
|7---------------|5---------------|7-------3-------|5-------2---5---|
|5-55555555555555|3-33333333333333|5-5555551-111111|3-3333330-003-33|

|0~------------5-|0~------------3-|----------------|--------3-------|
|----------------|----------------|3~------------5-|5~--------------|
|----------------|----------------|----------------|----------------|
|----------------|----------------|----------------|----------------|
|7---------------|5---------------|7-------3-------|5-------2---5---|
|5-55555555555555|3-33333333333333|5-5555551-111111|3-3333330-003-33|

A2

|----------------|----------------|----------------|---------------|
|----------------|----------------|----------------|---------------|
|----------------|7---------------|----------------|-------ph------|
|7---------------|----------------|8---------------|5------5~------|
|----------------|5---------------|----------------|---------------|
|5---------------|----------------|6---------------|3--------------|

|----------------|----------------|----------------|---3-----------|
|----------------|----------------|----------------|  ___ ---------|
|----------------|----------------|----------------| | | | 9---7---|
|7-77777777777777|----------------|----------------|10 9 7---------|
|5---------------|8-88888888888-7-|5-55555555555555|---------------|
|----------------|6---------------|3---------------|---------------|

|----------------|-----------------|--------------------|-----------------|
|----------------|-----------------|--------------------|-----------------|
|9-----9---9---9-|7-----10---9---7-|10-----10---10---10-|7-----10---7---9-|
|7-77777-777-777-|7-7777-7-777-777-|-8-8888-8-88-8-88-8-|7-7777-7-777-777-|
|----------------|-----------------|--------------------|-----------------|
|----------------|-----------------|--------------------|-----------------|

|----------------|----------------|----------------|---------------|
|----------------|----------------|----------------|---------------|
|----------------|----------------|----------------|---------------|
|7-77777777777777|----------------|------------5-5-|5-5555555555555|
|5---------------|8-88888888888-7-|8-8888888888----|---------------|
|----------------|6---------------|6---------------|---------------|

|----------------|----------------|----------------|---------------|
|----------------|----------------|----------------|---------------|
|----------------|7---------------|----------------|---------------|
|7---------------|----------------|8-----7----6----|6----7----8----|
|----------------|5---------------|----------------|---------------|
|5---------------|----------------|----------------|---------------|

C

|----------------|----------------|----------------|---------------|
|----------------|----------------|----------------|---------------|
|----------------|----------------|----------------|---------------|
|7---------------|----------------|----------------|5--------------|
|5---------------|8-----------8-8-|8---------------|3--------------|
|----------------|6-----------6-6-|6---------------|---------------|

Keyboard Solo

|----------------|----------------|----------------|---------------|
|----------------|----------------|----------------|---------------|
|----------------|----------------|----------------|---------------|
|----------------|----------------|----------------|---------------|
|----------------|----------------|----------------|---------------|
|----------------|----------------|----------------|---------------|x2

Guitar Solo

|----------------|----------------|----------------|---------------|
|----------------|-----------s----|----------------|----------s----|
|----9.----------|----10.--10-5-7-|----10.---------|---10.--10-5---|
|0-7-------------|0-7-------------|--8-------------|-8-----------7-|
|----------------|----------------|8---------------|8--------------|
|----------------|----------------|----------------|---------------|

|----------------|----------------|----------------|---------------|
|----------------|-----------s----|----------------|---------------|
|----9.----------|----10.--10-5-7-|----10.---------|----10.--------|
|0-7-------------|0-7-------------|--8-------------|--8-------10-9-|
|----------------|----------------|8---------------|8----------8-7-|
|----------------|----------------|----------------|---------------|

|1713------------|----------13----|1310------------|----------131713--|
|----15----------|-----------cud--|----11----------|--------15------15|
|------14--------|----------------|------10--------|------14----------|
|--------15------|----------------|--------12------|----15------------|
|----------17~---|----------------|----------13~---|1317--------------|
|----------------|----------------|----------------|------------------|

|1713------------|----------13----|131210----------|---------------|
|----15----------|-----------cud--|------11108-----|---------------|
|------14--------|----------------|-----------7~~--|75~~-----------|
|--------15------|----------------|----------------|-s-------------|
|----------17~---|----------------|----------------|---------------|
|----------------|----------------|----------------|---------------|

|----------------|-------------------|----------------|-------------------|
|----------------|--------------s----|----------------|--------------s----|
|----99.---------|----1010.--10105577|----1010.-------|----1010.--101055--|
|0077------------|0077---------------|--88------------|--88-------------77|
|----------------|-------------------|88--------------|88-----------------|
|----------------|-------------------|----------------|-------------------|

|----------------|-------------------|----------------|----------------|
|----------------|--------------s----|----------------|----------------|
|----99.---------|----1010.--10105577|----1010.-------|----1010.-------|
|0077------------|0077---------------|--88------------|--88-------10-9-|
|----------------|-------------------|88--------------|88----------8-7-|
|----------------|-------------------|----------------|----------------|

B

|----------------|----------------|----------------|----------------|
|----------------|----------------|----------------|----------------|
|7-----7---5---2-|7-----7---5---2-|7-----7---5-----|7-----7---5-----|
|7-77777-777-222-|7-77777-777-222-|8-88888-777---7-|8-88888-777---7-|
|----------------|----------------|------------777-|------------777-|
|----------------|----------------|----------------|----------------|

|----------------|----------------|----------------|----------------|
|----------------|----------------|----------------|------5555556666|
|7-----7---5-----|7-----7---5-----|----------------|555555----------|
|5-55555-555---7-|5-55555-555---7-|------------7777|----------------|
|------------777-|------------777-|555555888888----|----------------|
|----------------|----------------|----------------|----------------|

|----------------|----------------|----------------|----------------|
|----------------|----------------|----------------|----------------|
|7-----7---5---2-|7-----7---5---2-|7-----7---5-----|7-----7---5-----|
|7-77777-777-222-|7-77777-777-222-|8-88888-777---7-|8-88888-777---7-|
|----------------|----------------|------------777-|------------777-|
|----------------|----------------|----------------|----------------|

|----------------|----------------|----------------|----------------|
|----------------|----------------|------10~-----8-|9----10----9----|
|7-----7---5-----|7-----7---5-----|nh--------------|----------------|
|5-55555-555---7-|5-55555-555---7-|7~--------------|----------------|
|------------777-|------------777-|----------------|----------------|
|----------------|----------------|----------------|----------------|

Chorus

Outro

|--------------|
|--------------|
|--------------|
|--------------|
|7~~-----------|
|5-------------|



End





.  - palm mute                          /  - slide up to
\  - slide down to                      ~  - vibrato
"  - tremelo picking                    () - ghost note
p  - pull off                           h  - hammer-on
tr - trill notes                        fb - full bend (1step)
< > - harmonic

  Visit MetalTabs.com for more metal tablature

bottom separator

Contact Us | Privacy Policy | Disclaimer | Legal Notice
Copyright © 2001-2014 MetalTabs.com. All Rights Reserved.