top separator

Home

Forum

What's New

Submit a Tab

FAQ

Links

Contact Us

Link to Us

MetalTabs.com logo

Bands

0-9

A

B

C

D

E

F

G

H

I

J

K

L

M

N

O

P

Q

R

S

T

U

V

W

X

Y

Z

Search

What

Where
 

Norther - "Cry" Guitar Tab

Plain Text Version
More Norther Tabs

Hits: 5592
Rated: 4.00 out of 5 (2 votes)
Updated: 2004-08-21 14:43:40

 

By:

sendpm.gif

email.gif

Important note
This tab is available online because we obtained explicit permission from Norther or their label.


#----------------------------------PLEASE NOTE---------------------------------#
#This file is the author's own work and represents their interpretation of the #
#song. You may only use this file for private study, scholarship, or research. #
#Unless specified otherwise, this is NOT an official tab from the band members.#
#------------------------------------------------------------------------------#

  Visit MetalTabs.com for more metal tablature
  
Band :  Norther
Album : Mirror Of Madness
Song :  Cry

Label : Spinefarm

Tabber : Vader2
http://geocities.com/dark_interpretation         dark_interpretation@yahoo.com
Tuning Regular

Intro 1

|----------------|----------------|----------------|----------------|
|----------------|----------------|----------------|----------------|
|----------------|----------------|----------------|----------------|
|-h--------------|----------------|-h--------------|----10-----12---|
|5-7---8---5---7-|--7-8-7-5-----5-|5-7---8---5---7^^^^---8-----10---|
|----0---0---0---|0---------8-7---|----0---0---0---|---0---0-0------|

|----------------|----------------|----------------|----------------|
|----------------|----------------|----------------|----------------|
|----------------|----------------|----------------|----------------|
|-h--------------|----------------|-h--------------|----------------|
|5-7---8---5---7-|--7-8-7-5-------|5-7---8---5---7-|----------------|
|----0---0---0---|0---------8-7-3-|----0---0---0---|----------------|

Intro 2

|----------------|----------------|----------------|----------------|
|----------------|----------------|----------------|----------------|
|----------------|----------------|----------------|----------------|
|-h--------------|-------------h--|-h--------------|-------------h--|
|5-7---8---5---7-|------------5-7-|5-7---8---5---7-|------------5-7-|
|----0---0---0---|0-0-0-0-0-0-----|----0---0---0---|0-0-0-0-0-0-----|

|----------------|----------------|----------------|----------------|
|----------------|----------------|----------------|----------------|
|----------------|----------------|----------------|----------------|
|-h--------------|----------------|-h--------------|----------------|
|5-7---8---5---7-|-------------p--|5-7---8---5---7-|--------5-7-8-7-|
|----0---0---0---|0-0-0-0-0-0-5-3-|----0---0---0---|0-0-0-0---------|x2

A

|----------------|----0-------0---|----------------|----0-------0---|
|----------------|----0-------0---|----------------|----0-------0---|
|----------------|------0-------0-|----------------|------0------0--|
|9---------------|5-------7-------|9---------------|5-------7-------|
|7---------------|3-------5-------|7---------------|3-------5-------|
|----------------|----------------|--------0-------|----------------|

|----------------|----0-------0---|----------------|----0-------0---|
|----------------|----0-------0---|----------------|----0-------0---|
|----------------|------0-------0-|----------------|------0------0--|
|----------------|5-------7-------|9---------------|5-------7-------|
|22.22-----------|3-------5-------|7---------------|3-------5-------|
|00.00-----------|----------------|----------------|----------------|

|----------------|----0-------0---|----------------|----0-------0---|
|----------------|----0-------0---|----------------|----0-------0---|
|----------------|------0-------0-|----------------|------0------0--|
|----------------|5-------7-------|9---------------|5-------7-------|
|22.22~-2~-22-22-|3-------5-------|7---------------|3-------5-------|
|00.00~-0~-00-00-|----------------|----------------|----------------|

|----------------|----0-------0---|----------------|----0-------0---|
|----------------|----0-------0---|----------------|----0-------0---|
|----------------|------0-------0-|----------------|------0------0--|
|----------------|5-------7-------|9---------------|5-------7-------|
|22.22~-2~-22-22-|3-------5-------|7---------------|3-------5-------|
|00.00~-0~-00-00-|----------------|----------------|----------------|

B

|----------------|-----------------|----------------|----------------|
|----------------|-----------------|----------------|----------------|
|----------------|-----------------|----------------|----------------|
|----------------|9---7---10---9---|----------------|7---5---4---0---|
|2-----4-2-------|-----------------|2-----4-2-------|----------------|
|0-----2-0-------|-000-000--000-000|0-----2-0-------|-000-000-000-000|

|----------------|-----------------|----------------|----------------|
|----------------|-----------------|----------------|---------PH-----|
|----------------|-----------------|----------------|----------X~~~~-|
|----------------|9---7---10---9---|----------------|7---------------|
|2-----4-2-------|-----------------|2-----4-2-------|5---------------|
|0-----2-0-------|-000-000--000-000|0-----2-0-------|----------------|

Chorus

|----------------|----------------|----------------|----------------|
|----------------|----------------|----------------|----------------|
|----------------|----------------|----------------|----------------|
|-h--------------|-------------h--|-h--------------|-------------h--|
|5-7---8---5---7-|------------5-7-|5-7---8---5---7-|------------5-7-|
|----0---0---0---|0-0-0-0-0-0-----|----0---0---0---|0-0-0-0-0-0-----|

|----------------|----------------|----------------|----------------|
|----------------|----------------|----------------|----------------|
|----------------|----------------|----------------|----------------|
|-h--------------|----------------|-h--------------|----------------|
|5-7---8---5---7-|-------------p--|5-7---8---5---7-|--5-8-7-5-7-8-7-|
|----0---0---0---|0-0-0-0-0-0-5-3-|----0---0---0---|0---------------|x2

A

Keyboard Solo

|----------------|----------------|----------------|----------------|
|----------------|----------------|----------------|----------------|
|----------------|----------------|----------------|----------------|
|----------------|5---------------|----------------|----------------|
|2---------------|3---------------|7---------------|5-------5-------|
|0---------------|----------------|5---------------|3-------7-------|x2

|----------------|----------------|----------------|----------------|
|----------------|----------------|----------------|----------------|
|----------------|----------------|----------------|----------------|
|----------------|5--5x5xx5--5x5xx|----------------|----------------|
|2--2x2xx2--2x2xx|3-33x3xx3-33x3xx|7--7x7xx7--7x7xx|5--5x5xx5--5x5xx|
|0-00x0xx0-00x0xx|----------------|5-55x5xx5-55x5xx|3-33x3xx7-77x7xx|x2

B

Chorus

Guitar Solo

|----------------|----------------|-----------------|-----------------|
|8-7-5-0-5-0-7-0-|5-0-8-0-7-0-5-0-|8-7-5-0-5-0-12-0-|10-0-8-0-7-0-5-0-|
|----------------|----------------|-----------------|-----------------|
|----------------|----------------|-----------------|-----------------|
|----------------|----------------|-----------------|-----------------|
|----------------|----------------|-----------------|-----------------|

|----------------|----------------|----------------|-----------------|
|7-5-3-0-3-0-5-0-|3-0-7-0-5-0-3-0-|7-5-3-0-3-0-5-0-|3-0-10-0-8-0-7-0-|
|----------------|----------------|----------------|-----------------|
|----------------|----------------|----------------|-----------------|
|----------------|----------------|----------------|-----------------|
|----------------|----------------|----------------|-----------------|x2

|-------------------|------------------|
|12-10-8-0-8-0-10-0-|8-0-12-0-10-0-8-0-|
|-------------------|------------------|
|-------------------|------------------|
|-------------------|------------------|
|-------------------|------------------|

|-------------------|-------------------|
|12-10-8-0-8-0-15-0-|13-0-12-0-10-0-8-0-|
|-------------------|-------------------|
|-------------------|-------------------|
|-------------------|-------------------|
|-------------------|-------------------|x2

|-----------------|-----------------|------------------|------------------|
|10-8-7-0-7-0-8-0-|7-0-10-0-8-0-7-0-|10-8-7-0-7-0-13-0-|12-0-10-0-8-0-7-0-|
|-----------------|-----------------|------------------|------------------|
|-----------------|-----------------|------------------|------------------|
|-----------------|-----------------|------------------|------------------|
|-----------------|-----------------|------------------|------------------|x2

B

Chorus

Intro 1


End






.  - palm mute                          /  - slide up to
\  - slide down to                      ~  - vibrato
"  - tremelo picking                    () - ghost note
p  - pull off                           h  - hammer-on
tr - trill notes                        fb - full bend (1step)
< > - harmonic

  Visit MetalTabs.com for more metal tablature

bottom separator

Contact Us | Privacy Policy | Disclaimer | Legal Notice
Copyright © 2001-2014 MetalTabs.com. All Rights Reserved.