top separator

Home

Forum

What's New

Submit a Tab

FAQ

Links

Contact Us

Link to Us

MetalTabs.com logo

Bands

0-9

A

B

C

D

E

F

G

H

I

J

K

L

M

N

O

P

Q

R

S

T

U

V

W

X

Y

Z

Search

What

Where
 

Norther - "Midnight Walker" Guitar Tab

Plain Text Version
More Norther Tabs

Hits: 4751
Rated: 4.50 out of 5 (4 votes)
Updated: 2004-08-21 14:43:32

 

By:

sendpm.gif

email.gif

Important note
This tab is available online because we obtained explicit permission from Norther or their label.


#----------------------------------PLEASE NOTE---------------------------------#
#This file is the author's own work and represents their interpretation of the #
#song. You may only use this file for private study, scholarship, or research. #
#Unless specified otherwise, this is NOT an official tab from the band members.#
#------------------------------------------------------------------------------#

  Visit MetalTabs.com for more metal tablature
  
Band :  Norther
Album : MIrror Of Madness
Song :  Midnight Walker

Label : Spinefarm

Tabber : Vader2
http://geocities.com/dark_interpretation         dark_interpretation@yahoo.com
Tuning Regular

Intro

|----------------|----------------|----------------|-----------------|
|----------------|----------------|----------------|----ph------ph---|
|----------------|----------------|----------------|----2~~-----1~~--|
|2-----3-----3---|2-----0-----0---|2-----3-----3---|-----------------|
|--0-0---0-0---0-|--0-0---0-0---0-|--0-0---0-0---0-|-----------------|
|----------------|----------------|----------------|1-1-----0-0------|

|----------------|----------------|----------------|-----------------|
|----------------|----------------|----------------|-------nh--nh----|
|----------------|----------------|----------------|--------5~--5~---|
|2-----3-----3---|2-----0-----0---|5-----7-----7---|-----------------|
|--0-0---0-0---0-|--0-0---0-0---0-|--0-0---0-0---0-|0-2-3-5----------|
|----------------|----------------|----------------|-----------------|

|----------------|----------------|----------------|-----------------|
|----------------|----------------|----------------|-----------------|
|----------------|----------------|----------------|-----------------|
|----------------|----------------|----------------|-----------------|
|3-0-0-5-0-0-5-0-|3-0-0-2-0-0-2-0-|3-0-0-5-0-0-5-0-|----3~------2~---|
|----------------|----------------|----------------|1-1-1---0-0-0----|

|----------------|----------------|----------------|-----------nh----|
|----------------|----------------|----------------|-------nh---5~---|
|----------------|----------------|----------------|------2-5~-------|
|----------------|----------------|----------------|2-3-5------------|
|3-0-0-5-0-0-5-0-|3-0-0-2-0-0-2-0-|3-0-0-5-0-0-5-0-|-----------------|
|----------------|----------------|----------------|-----------------|

A

|----------------|----------------|----------------|----------------|
|----------------|----------------|----------------|----------------|
|----------------|----------------|----------------|----------------|
|----------------|----------------|10--xx-10-9-7---|--------7-7~----|
|7---------------|5---x-5-x-5-x-x-|-------------10-|10~-------------|
|5---------------|3---x-3-x-3-x-x-|----------------|----------------|

|----------------|----------------|----------------|----------------|
|----------------|----------------|----------------|----------------|
|----------------|----------------|----------------|----------------|
|----------------|----------------|5------------5s7|----------------|
|7---------------|3---------------|3---------------|5---------------|
|5---------------|1---------------|----------------|3---------------|

|----------------|----------------|------------------------|----------------|
|----------------|----------------|------------------------|----------------|
|----------------|---------3------|------------------------|----------------|
|----------------|-------- _------|10--1010101010109977----|10~-----9-7~----|
|7---------------|5---x-5-|||-----|--------------------1010|----------------|
|5---------------|3---x-3-333-3-3-|------------------------|----------------|

|----------------|----------------|----------------|----------------|
|----------------|----------------|----------------|-------ph-------|
|----------------|----------------|----------------|--------5~~-----|
|----------------|10--------------|5---------------|----------------|
|7---------------|-8--------------|3---------------|5---------------|
|5---------------|----------------|----------------|3---------------|

B

|----------------|----------------|-----------------|-----------------|
|----------------|----------------|--------hp-------|-----------------|
|----------------|----------------|7~-----575-5-----|----------------7|
|7~--------------|7-9-10~------910|---------------9-|7~--------7-9-10-|
|----------------|----------------|-----------------|-----------------|
|----------------|----------------|-----------------|-----------------|

|----------------|----------------|-----------------|-----------------|
|----------------|8-------hp------|-----------------|-----------------|
|10~-------------|-------575-5----|---------------7-|9-7--------------|
|----------------|--------------9-|7~------7-9-10---|----10-9-7------9|
|----------------|----------------|-----------------|-----------10-10-|
|----------------|----------------|-----------------|-----------------|

|----------------|----------------|-----------------|-----------------|
|----------------|----------------|--------hp-------|-----------------|
|----------------|----------------|7~-----575-5-----|----------------7|
|7~--------------|7-9-10~------910|---------------9-|7~--------7-9-10-|
|----------------|----------------|-----------------|-----------------|
|----------------|----------------|-----------------|-----------------|

|----------------|---------8--7---|5~~--------------|-----------------|
|----------------|8~--------------|nh---------------|8~~--------------|
|10~-------------|----------------|-----------------|-----------------|
|----------------|----------------|-----------------|-----------------|
|----------------|----------------|-----------------|-----------------|
|----------------|----------------|-----------------|-----------------|

Chorus

|----------------|----------------|----------------|----------------|
|----------------|----------------|----------------|----------------|
|----------------|----------------|----------------|----------------|
|----------------|5---------------|----------------|----------------|
|7---------------|3---------------|5---------------|3-------2-------|
|5---------------|----------------|3---------------|1-------0-------|

|----------------|----------------|----------------|----------------|
|----------------|----------------|----------------|----------------|
|----------------|----------------|----------------|----------------|
|----------------|5---------------|----------------|----------------|
|7---------------|3---------------|2---------------|3-3--3----------|
|5---------------|----------------|0---------------|1-1.-1----111111|

|----------------|----------------|----------------|----------------|
|----------------|----------------|----------------|----------------|
|----------------|----------------|----------------|----------------|
|----------------|5---------------|----------------|----------------|
|7---------------|3-33333333333333|5---------------|3-------2-------|
|5-55555555555555|----------------|3-33333333333333|1-1111110-000000|

|----------------|----------------|----------------|----------------|
|----------------|----------------|----------------|----------------|
|----------------|----------------|----------------|----------------|
|----------------|5---------------|----------------|----------------|
|7---------------|3-33333333333333|2---------------|3---------------|
|5-55555555555555|----------------|0-00000000000000|1-11111111111111|

|------------12-|10--8--12--101210|---------------|-------------|
|10~------------|-------------h-p-|8~----------10-|8-----10--9--|
|---------------|-----------------|---------------|---9---------|
|---------------|-----------------|---------------|-------------|
|---------------|-----------------|---------------|-------------|
|---------------|-----------------|---------------|-------------|

|------------12-|10--8--12--101210|------------10-|8------cud---|
|10~------------|-------------h-p-|8~-------------|---12--12~~--|
|---------------|-----------------|---------------|-------------|
|---------------|-----------------|---------------|-------------|
|---------------|-----------------|---------------|-------------|
|---------------|-----------------|---------------|-------------|

Intro

A

|----------------|----------------|----------------|----------------|
|----------------|----------------|----------------|----------------|
|----------------|----------------|----------------|----------------|
|----------------|----------------|10--xx-10-9-7---|--------7-7~----|
|7---------------|5---x-5-x-5-x-x-|-------------10-|10~-------------|
|5---------------|3---x-3-x-3-x-x-|----------------|----------------|

|----------------|----------------|----------------|----------------|
|----------------|----------------|----------------|----------------|
|----------------|----------------|----------------|----------------|
|----------------|----------------|5------------5s7|----------------|
|7---------------|3---------------|3---------------|5---------------|
|5---------------|1---------------|----------------|3---------------|

|----------------|----------------|
|----------------|----------------|
|----------------|---------3------|
|----------------|-------- _------|
|7---------------|5---x-5-|||-----|
|5---------------|3---x-3-333-3-33|

|------------------------|----------------------|
|------------------------|----------------------|
|------------------------|----------------------|
|10--1010101010109977----|1010997710109977101099|
|--------------------1010|----------------------|
|------------------------|----------------------|

|----------------|----------------|----------------|----------------|
|----------------|----------------|----------------|-------ph-------|
|----------------|----------------|----------------|--------5~~-----|
|----------------|10--------------|5---------------|----------------|
|7---------------|-8--------------|3---------------|5---------------|
|5---------------|----------------|----------------|3---------------|

B

Chorus

Guitar Solo 1

|-------------------|------------------|
|-------------------|--8---------------|
|-------7----9-7-10-|9--10-9-7---------|
|7-10-9---10--------|----------10-9----|
|-------------------|---------------10-|
|-------------------|------------------|

|-------------------|-------------------|
|-------------------|10-8----8----------|
|-------7----9-7-10-|-----10---10-9-7-9-|
|7-10-9---10--------|-------------------|
|-------------------|-------------------|
|-------------------|-------------------|

|-------------------|------------------|
|-------------------|--8---------------|
|-------7----9-7-10-|9--10-9-7---------|
|7-10-9---10--------|----------10-9----|
|-------------------|---------------10-|
|-------------------|------------------|

|-------------------|--------------------|
|-------------------|10-8----------------|
|-------7----9-7-10-|-----10-9-7---------|
|7-10-9---10--------|------------10-9----|
|-------------------|-----------------10-|
|-------------------|--------------------|

|----------------|-----------------------|
|----------------|------10----8----10----|
|----9---7---9---|10-10----10---10----10-|
|7-7---7---7---7-|-----------------------|
|----------------|-----------------------|
|----------------|-----------------------|

|----10---8---10---|-----------------|
|8-8----8---8----8-|----7---5-7-5~---|
|------------------|7-7---7----------|
|------------------|-----------------|
|------------------|-----------------|
|------------------|-----------------|

|----------------|-----------------------|
|----------------|------10----8----10----|
|----9---7---9---|10-10----10---10----10-|
|7-7---7---7---7-|-----------------------|
|----------------|-----------------------|
|----------------|-----------------------|

|----10---8---10---|-----------------|
|8-8----8---8----8-|----7---5-7-5~---|
|------------------|7-7---7----------|
|------------------|-----------------|
|------------------|-----------------|
|------------------|-----------------|

|----------------|-----------------------|
|----------------|------10----8----10----|
|----9---7---9---|10-10----10---10----10-|
|7-7---7---7---7-|-----------------------|
|----------------|-----------------------|
|----------------|-----------------------|

|------19----17----19----|------14-12-14~---|
|15-15----15----15----15-|15-15--------cud--|
|------------------------|------------------|
|------------------------|------------------|
|------------------------|------------------|
|------------------------|------------------|

|----------------|-----------------------|
|----------------|------10----8----10----|
|----9---7---9---|10-10----10---10----10-|
|7-7---7---7---7-|-----------------------|
|----------------|-----------------------|
|----------------|-----------------------|

|------19----17----19----|------14-12-14~---|
|15-15----15----15----15-|15-15-------------|
|------------------------|------------------|
|------------------------|------------------|
|------------------------|------------------|
|------------------------|------------------|

Guitar Solo 2

|----------------|----------------|------------p---|---------------|
|----------------|----------------|13~-----13~---12|8~~------------|
|------------9---|14~----12~------|--------hcu-----|---------------|
|7~----10--------|----------------|----------------|---------------|
|----------------|----------------|----------------|---------------|
|----------------|----------------|----------------|---------------|

|12------------------------------|-------------------------------|
|--151312151312--1312--1213121512|15121212131212121312121215~----|
|--------------14----14----------|-------------------------------|
|--------------------------------|-------------------------------|
|--------------------------------|-------------------------------|
|--------------------------------|-------------------------------|

|--171513--13--------------------|----------------------------------|
|17------15--17151317151312151312|----------------------------------|
|--------------------------------|12161412--12----------------------|
|--------------------------------|--------14--1514121514--12--------|
|--------------------------------|----------------------15--151412~-|
|--------------------------------|----------------------------------|

|----------------|----------------|----15--17--15--|---------------|
|17~~~-----------|17--15------15--|17------hcu-----|17-------------|
|-hcu------------|--------17------|----------------|---17~---------|
|----------------|----------------|----------------|---------------|
|----------------|----------------|----------------|---------------|
|----------------|----------------|----------------|---------------|

|1715----------------------------------|--------------------------------|
|----181715----------------------------|--------------------------------|
|----------171614----------------------|----------------------------12--|
|----------------171514----------------|----------------121415121415--14|
|----------------------17151412~-------|--------12131513----------------|
|--------------------------------12~---|12131513------------------------|

|10121512101215121012151212~---|12~-----------12~-----------|
|------------------------------|ph--------------------------|
|------------------------------|----------------------------|
|------------------------------|----------------------------|
|------------------------------|----------------------------|
|------------------------------|----------------------------|

|15121012151210121512101215121012|17121012171210121712101217121012|
|-tp-p-h--tp-p-h--tp-p-h--tp-p-h-|-tp-p-h--tp-p-h--tp-p-h--tp-p-h-|
|--------------------------------|--------------------------------|
|--------------------------------|--------------------------------|
|--------------------------------|--------------------------------|
|--------------------------------|--------------------------------|

|17~~~------------|
|-----------------|
|-----------------|
|-----------------|
|-----------------|
|-----------------|

Keyboard Solo

|----------------|----------------|----------------|----------------|
|----------------|----------------|----------------|----------------|
|----------------|----------------|----------------|----------------|
|----------------|----------------|----------------|7---------------|
|7---------------|7---------------|5---------------|5-55555555555555|
|5-55555555555555|4-44444444444444|3-33333333333333|----------------|

|----------------|----------------|----------------|---------------|
|----------------|----------------|----------------|---------------|
|----------------|----------------|----------------|---------------|
|----------------|----------------|----------------|---------------|
|3---------------|----------------|5---------------|---------------|
|1-11111111111111|1111111111111111|3-33333333333333|333333333333333|

|-----------------|
|-----------------|
|-----------------|
|-----------------|
|7----------------|
|5----------------|

Chorus

Outro

|-------------------|------------------|
|-------------------|--8---------------|
|-------7----9-7-10-|9--10-9-7---------|
|7-10-9---10--------|----------10-9----|
|-------------------|---------------10-|
|-------------------|------------------|

|---------10----12-10-13-|   10 12 15-17~~-----|
|10-13-12----13----------|13  |  | ------------|
|------------------------| |  |  | ------------|
|------------------------|----3----------------|
|------------------------|---------------------|
|------------------------|---------------------|

|----------------|----------------|----------------|----------------|
|----------------|----------------|----------------|----------------|
|----------------|----------------|----------------|----------------|
|----------------|----------------|----------------|----------------|
|3---------------|----------------|5---------------|----------------|
|1---------------|1-1-1-1-1-1-1-1-|3---------------|3-3-3-3-3-3-3-3-|

|------------------|
|------------------|
|------------------|
|------------------|
|7--xx77-10--9--7--|
|5--xx55--8--7--5.-|

End





.  - palm mute                          /  - slide up to
\  - slide down to                      ~  - vibrato
"  - tremelo picking                    () - ghost note
p  - pull off                           h  - hammer-on
tr - trill notes                        fb - full bend (1step)
< > - harmonic

  Visit MetalTabs.com for more metal tablature

bottom separator

Contact Us | Privacy Policy | Disclaimer | Legal Notice
Copyright © 2001-2014 MetalTabs.com. All Rights Reserved.