top separator

Home

Forum

What's New

Submit a Tab

FAQ

Links

Contact Us

Link to Us

MuSpy.com

MetalTabs.com logo

Bands

0-9

A

B

C

D

E

F

G

H

I

J

K

L

M

N

O

P

Q

R

S

T

U

V

W

X

Y

Z

Search

What

Where
 

Norther - "Of Darkness And Light" Guitar Tab

Plain Text Version
More Norther Tabs

Hits: 4195
Rated: 4.00 out of 5 (1 vote)
Updated: 2004-08-21 14:43:24

 

By:

sendpm.gif

email.gif

Important note
This tab is available online because we obtained explicit permission from Norther or their label.


#----------------------------------PLEASE NOTE---------------------------------#
#This file is the author's own work and represents their interpretation of the #
#song. You may only use this file for private study, scholarship, or research. #
#Unless specified otherwise, this is NOT an official tab from the band members.#
#------------------------------------------------------------------------------#

  Visit MetalTabs.com for more metal tablature
  
Band :  Norther
Album : MIrror Of Madness
Song :  Of Darkness And Light

Label : Spinefarm

Tabber : Vader2
http://geocities.com/dark_interpretation         dark_interpretation@yahoo.com
Tuning Regular

Intro

|150121401001200150170140|1501214010019001500140150|
|------------------------|-------------------------|
|------------------------|-------------------------|
|------------------------|-------------------------|
|------------------------|-------------------------|
|------------------------|-------------------------|

|150121401001200150170140|150171901702000190170190|
|------------------------|------------------------|
|------------------------|------------------------|
|------------------------|------------------------|
|------------------------|------------------------|
|------------------------|------------------------|

|150121401001200150170140|1501214010019001500140150|
|------------------------|-------------------------|
|------------------------|-------------------------|
|------------------------|-------------------------|
|------------------------|-------------------------|
|------------------------|-------------------------|

|150121401001200150170140|190212202102200210190170|
|------------------------|------------------------|
|------------------------|------------------------|
|------------------------|------------------------|
|------------------------|------------------------|
|------------------------|------------------------|x2

A

|------------------|----------------|----------------|-------------------|
|------------------|----------------|----------------|-------------------|
|9---9---9---------|9--9--9---------|7--7--7---------|-------------------|
|9---9--10---------|9--9--7---------|7--7--7---------|4--4--4------------|
|7---7---7---------|7--7--7---------|5--5--5---------|5--5--5-----7-5-7-5|
|------------------|----------------|----------------|-------------------|x4

B

|----------------|----------------|----------------|-----------------|
|----------------|----------------|----------------|-----------------|
|----------------|----------------|----------------|8----------------|
|5---------------|----------------|7---------------|9----------------|
|3---------------|2---------------|5---------------|6----------------|
|----------------|0---------------|----------------|-----------------|

Chorus

|----------------|----------------|----------------|-----------------|
|----------------|----------------|----------------|-----------------|
|----------------|----------------|----------------|-----------------|
|9---------------|5---------------|7---------------|10---------------|
|7---------------|3---------------|5---------------|-8---------------|
|0---------------|----------------|----------------|-----------------|

|----------------|----------------|----------------|-----------------|
|----------------|----------------|----------------|-----------------|
|----------------|----------------|----------------|-----------------|
|9---------------|5---------------|----------------|-----------------|
|7---------------|3---------------|3---------------|5-------5--------|
|0---------------|----------------|1---------------|3-------2--------|


Guitar Solo 1

|----------------------------|------------------php-|
|10--10--12-10-10--10--12-10-|8--8--10-8-7--7--787--|
|--99--99--9--9--99--99--9--9|-99-99--9-9-99-99---97|
|----------------------------|---------------------p|
|----------------------------|----------------------|
|----------------------------|----------------------|

|----------------------------|-----------------php-|
|10--10--12-10-10--10--12-10-|------8-7-7--7--787--|
|--99--99--9--9--99--99--9--9|999999-9-9-99-99---97|
|----------------------------|--------------------p|
|----------------------------|---------------------|
|----------------------------|---------------------|x2

|----------------|
|----------------|
|9~~~~-----------|
|----------------|
|----------------|
|----------------|

A

|----------------|----------------|----------------|-----------------|
|----------------|----------------|----------------|-----------------|
|----------------|----------------|----------------|-----------------|
|5---------------|----------------|7---------------|10---------------|
|3---------------|2---------------|5---------------|-8---------------|
|----------------|0---------------|----------------|-----------------|

|----------------|----------------|----------------|-----------------|
|----------------|----------------|----------------|-----------------|
|----------------|----------------|----------------|8----------------|
|5---------------|----------------|4---------------|9----------------|
|3---------------|2---------------|2---------------|6----------------|
|----------------|0---------------|----------------|-----------------|

Chorus

Intro

Guitar Solo

|--------------------|---------------|
|17~~--15-17~--15-17-|---------------|
|--------------------|14~~---12-14---|
|--------------------|---------------|
|--------------------|---------------|
|--------------------|---------------|

|----------------14151719171514--|-------------------------------|
|------------1315--------------17|151312-------------------------|
|------121416--------------------|------141211-------------------|
|121416--------------------------|------------141210-------------|
|--------------------------------|------------------1412109101210|
|--------------------------------|-------------------------------|

|----------------1517-|1717171517--17~-|
|--s1717~-------------|CUCU-----CUD----|
|---------------------|----------------|
|---------------------|----------------|
|7s-------------------|----------------|
|---------------------|----------------|

|222019--19--------------------|17~--15~--10-101212~--|
|------22--22220182018202220~--|--------s------s------|
|------------------------------|----------------------|
|------------------------------|----------------------|
|------------------------------|----------------------|
|------------------------------|----------------------|

|-----------------------------|--CUD-----------|
|---------10----10121010cu.d17|17--------------|
|---9--912--1212--------------|----------------|
|912-12-----------------------|----------------|
|-----------------------------|----------------|
|-----------------------------|----------------|

|121512--12--------___---_________ |--------------------|
|------15--151215 | | | | | | | | ||--------------------|
|----------------141214121412 | | ||129--997-7----------|
|----------------------------141214|---12---9-975-------|
|----------------------------------|-----------pp7~~----|
|----------------------------------|--------------------|


|----------------------------|--12----1512--17-----|
|------------------15~~s12~--|15--1512----15--15~~-|
|--------7911121112----------|---------------------|
|----7910--------------------|---------------------|
|7910------------------------|---------------------|
|----------------------------|---------------------|

|---------------|------------------|
|---------------|----------ph------|
|11---12---11~--|9-11-12---14~~----|
|---99---99-----|------------------|
|---------------|------------------|
|---------------|------------------|

B

Chorus

|----------------|
|----------------|
|9---------------|
|9---------------|
|7---------------|
|----------------|

End




.  - palm mute                          /  - slide up to
\  - slide down to                      ~  - vibrato
"  - tremelo picking                    () - ghost note
p  - pull off                           h  - hammer-on
tr - trill notes                        fb - full bend (1step)
< > - harmonic

  Visit MetalTabs.com for more metal tablature

bottom separator

Contact Us | Privacy Policy | Disclaimer | Legal Notice
Copyright © 2001-2014 MetalTabs.com. All Rights Reserved.