top separator

Home

Forum

What's New

Submit a Tab

FAQ

Links

Contact Us

Link to Us

MuSpy.com

MetalTabs.com logo

Bands

0-9

A

B

C

D

E

F

G

H

I

J

K

L

M

N

O

P

Q

R

S

T

U

V

W

X

Y

Z

Search

What

Where
 

Norther - "Betrayed" Guitar Tab

Plain Text Version
More Norther Tabs

Hits: 5341
Rated: 2.67 out of 5 (3 votes)
Updated: 2004-08-21 14:43:03

 

By:

sendpm.gif

email.gif

Important note
This tab is available online because we obtained explicit permission from Norther or their label.


#----------------------------------PLEASE NOTE---------------------------------#
#This file is the author's own work and represents their interpretation of the #
#song. You may only use this file for private study, scholarship, or research. #
#Unless specified otherwise, this is NOT an official tab from the band members.#
#------------------------------------------------------------------------------#

  Visit MetalTabs.com for more metal tablature
  
Band :  Norther
Album : MIrror Of Madness
Song :  Betrayed

Label : Spinefarm

Tabber : Vader2
http://geocities.com/dark_interpretation         dark_interpretation@yahoo.com
Tuning Regular

Intro 1

|----------------|-------------------|
|----------------|-------------------|
|----------------|-------------------|
|9-----7-----9---|10-----10------7---|
|7-77777-77777-77|-7-7777-7-7777-7-77|
|----------------|-------------------|

|-----------------------------|-----------------------------|
|-----------------------------|-----------------------------|
|-----------------------------|-----------------------------|
|10---------10---------10-----|10---------10---------10-----|
|12-1212121212-1212121212-1212|10-1010101010-1010101010-1010|
|-----------------------------|-----------------------------|

|----------------|-------------------|
|----------------|-------------------|
|----------------|-------------------|
|9-----7-----9---|10-----10------7---|
|7-77777-77777-77|-7-7777-7-7777-7-77|
|----------------|-------------------|

|--------------------------------|--------------------------------|
|--------------------------------|--_____---_____---_____---_____-|
|--_____---_____---_____---_____-|-| | | | | | | | | | | | | | | ||
|-| | | | | | | | | | | | | | | ||14141414141412121212121214141414|
|12121212121214141414141415151515|--------------------------------|
|--------------------------------|--------------------------------|

Intro 2

|----------------|-------------------|
|----------------|-------------------|
|----------------|-------------------|
|9-----7-----9---|10-----10------7---|
|7-77777-77777-77|-7-7777-7-7777-7-77|
|----------------|-------------------|

|-----------------------------|-----------------------------|
|-----------------------------|-----------------------------|
|-----------------------------|-----------------------------|
|10---------10---------10-----|10---------10---------10-----|
|12-1212121212-1212121212-1212|10-1010101010-1010101010-1010|
|-----------------------------|-----------------------------|

|----------------|-------------------|
|----------------|-------------------|
|----------------|-------------------|
|9-----7-----9---|10-----10------7---|
|7-77777-77777-77|-7-7777-7-7777-7-77|
|----------------|-------------------|

|--------------------------------|--------------------------------|
|--_____---_____---_____---_____-|--------------------------------|
|-| | | | | | | | | | | | | | | ||--_____---_____---_____---_____-|
|14141414141412121212121214141414|-| | | | | | | | | | | | | | | ||
|--------------------------------|15151515151514141414141412121212|
|--------------------------------|--------------------------------|

|----------------|-------------------|
|----------------|-------------------|
|----------------|-------------------|
|9-----7-----9---|10-----10------7---|
|7-77777-77777-77|-7-7777-7-7777-7-77|
|----------------|-------------------|

|-----------------------------|-----------------------------|
|-----------------------------|-----------------------------|
|-----------------------------|-----------------------------|
|10---------10---------10-----|10---------10---------10-----|
|12-1212121212-1212121212-1212|10-1010101010-1010101010-1010|
|-----------------------------|-----------------------------|

|----------------|-------------------|
|----------------|-------------------|
|----------------|-------------------|
|9-----7-----9---|10-----10------7---|
|7-77777-77777-77|-7-7777-7-7777-7-77|
|----------------|-------------------|

|--------------------------------|--------------------------------|
|--_____---_____---_____---_____-|--------------------------------|
|-| | | | | | | | | | | | | | | ||--_____---_____---_____---_____-|
|121212121212101010101010-9-9-9-9|-| | | | | | | | | | | | | | | ||
|--------------------------------|121212121212101010101010-9-9-9-9|
|--------------------------------|--------------------------------|

A

|----------------|----------------|
|----------------|----------------|
|----------------|----------------|
|----------------|----------------|
|9---------------|9-------7-------|
|7-77777777777777|7-7777777-777777|
|----------------|----------------|

|----------------|-------------------------------|
|----------------|-------------------------------|
|----------------|-------------------------------|
|----------------|-------------------------------|
|7-----5-----4---|10-----------------------------|
|5-55555-55555-55|12-1212121212121212121212121212|
|----------------|-------------------------------|

|----------------|----------------|
|----------------|----------------|
|----------------|----------------|
|----------------|----------------|
|9---------------|9-------7-------|
|7-77777777777777|7-7777777-777777|
|----------------|----------------|

|-----------------------------|-------------------------------|
|-----------------------------|-------------------------------|
|-----------------------------|-------------------------------|
|-----------------------------|-------------------------------|
|12---------10----------9-----|10-----------------------------|
|10-1010101010-1010101010-1010|12-1212121212121212121212121212|
|-----------------------------|-------------------------------|

|----------------|----------------|
|----------------|----------------|
|----------------|----------------|
|----------------|----------------|
|9---------------|9-------7-------|
|7-77777777777777|7-7777777-777777|
|----------------|----------------|

|----------------|-------------------------------|
|----------------|-------------------------------|
|----------------|-------------------------------|
|----------------|-------------------------------|
|7-------5-------|10-----------------------------|
|5-5555555-555555|12-1212121212121212121212121212|
|----------------|-------------------------------|

|----------------|----------------|
|----------------|----------------|
|----------------|----------------|
|----------------|----------------|
|9---------------|9-------7-------|
|7-77777777777777|7-7777777-777777|
|----------------|----------------|

|-------------------------|----------------------------|
|-------------------------|----------------------------|
|-------------------------|----------------------------|
|-------------------------|----------------------------|
|12---------10------9-----|10------9-----12-----10-----|
|10-1010101010-101010-1010|12-121212-121212-121212-1212|
|-------------------------|----------------------------|

Intro 1 and a half of Intro 2

A2

|----------------|----------------|
|----------------|----------------|
|----------------|----------------|
|4-------4-------|4-------4---4---|
|5-------5-------|5-------5---5---|
|7-77777777777777|7-7777777-777-77|
|----------------|----------------|

|----------------|--------------------------------|
|----------------|--------------------------------|
|----------------|--------------------------------|
|--------5-------|--------------------------------|
|7-------7-------|10--1010101010101010101010101010|
|5-5555555-555555|12--1212121212121212121212121212|
|----------------|--------------------------------|

|----------------|----------------|
|----------------|----------------|
|----------------|----------------|
|----------------|----------------|
|9---------------|9-------7-------|
|7-77777777777777|7-7777777-777777|
|----------------|----------------|

|-----------------------------|-------------------------------|
|-----------------------------|-------------------------------|
|-----------------------------|-------------------------------|
|-----------------------------|-------------------------------|
|12---------10----------9-----|10-----------------------------|
|10-1010101010-1010101010-1010|12-1212121212121212121212121212|
|-----------------------------|-------------------------------|

|----------------|----------------|
|----------------|----------------|
|----------------|----------------|
|----------------|----------------|
|9---------------|9-------7-------|
|7-77777777777777|7-7777777-777777|
|----------------|----------------|

|----------------|-------------------------------|
|----------------|-------------------------------|
|----------------|-------------------------------|
|----------------|-------------------------------|
|7-------5-------|10-----------------10------10--|
|5-5555555-555555|12-121212121212121212--121212--|
|----------------|-------------------------------|

|----------------|----------------|
|----------------|----------------|
|----------------|----------------|
|----------------|----------------|
|9---------------|9-------7-------|
|7-77777777777777|7-7777777-777777|
|----------------|----------------|

|-----------------------------|----------------------------|
|-----------------------------|----------------------------|
|-----------------------------|----------------------------|
|-----------------------------|----------------------------|
|12---------10----------9-----|10------9-----10------9-----|
|10-1010101010-1010101010-1010|12-121212-121212-121212-1212|
|-----------------------------|----------------------------|

Chorus

|----------------|----------------|----------------|-----------------|
|5---------------|7-------5---7---|8---------------|-----------------|
|----------------|----7-----------|---------------4|2----------------|
|9---------------|----------------|----------------|7----------------|
|7---------------|9---------------|5---------------|5----------------|
|----------------|7---------------|3---------------|-----------------|

|----------------|----------------|----------------|-----------------|
|5--------------8|----------------|7--------------8|7----------------|
|----------------|7---------------|----------------|-----------------|
|9---------------|----------------|7---------------|-----------------|
|7---------------|5---------------|5---------------|9----------------|
|----------------|3---------------|----------------|7----------------|x4

Keyboard

|----------------|----------------|----------------|----------------|
|----------------|----------------|----------------|----------------|
|----------------|----------------|----------------|----------------|
|5---------------|----------------|7---------------|----------------|
|3---------------|----------------|5---------------|----------------|
|----------------|----------------|----------------|----------------|x2

|----------------|----------------|----------------|----------------|
|----------------|----------------|----------------|----------------|
|----------------|----------------|----------------|----------------|
|5---------------|----------------|----------------|----------------|
|3---------------|----------------|5---------------|----------------|
|----------------|----------------|3---------------|----------------|

|----------------|----------------|----------------|----------------|
|----------------|----------------|----------------|----------------|
|----------------|----------------|----------------|----------------|
|7---------------|----------------|4-----4-----4---|5-------7-------|
|5---------------|----------------|2-22222-22222-22|3-3333335-555555|
|----------------|----------------|----------------|----------------|

Guitar Solo

|----------------------------|--------------------|
|----------------------------|--------------------|
|9~---11~-12~---14-12-11---p-|-7-9~---11~---12~---|
|------------------------129-|9-------------------|
|----------------------------|--------------------|
|----------------------------|--------------------|

|------7---78--78107810|12~~----11~~-----|
|107810-810--10--------|-----------------|
|----------------------|-----------------|
|----------------------|-----------------|
|----------------------|-----------------|
|----------------------|-----------------|

|121415141210----------------------| ________ ---6-----------|
|--h-h-p-p-s-12131513121081012108--|| | | || | ______ -------|
|--------------h-h-p-p-p-sh-h-p-p10|91012109 ||| ||| |-------|
|----------------------------------|-hh-p-p-12791097 |-------|
|----------------------------------|-----------hh-pp107~~----|
|----------------------------------|-----------------p-------|

|----------------------|----------------------------|
|----------------------|-h-p-p----------------------|
|--------79121191211~~-|1112119----------91112119~--|
|----7910--------------|-------12109----9-----------|
|7910------------------|------------1210------------|
|----------------------|----------------------------|

|------------------------12141514|12------------------|
|------------------121415--------|--15141215----------|
|------------111214--------------|----------14121114~-|
|------101214--------------------|--------------------|
|101214--------------------------|--------------------|
|--------------------------------|--------------------|

|--------------------|------------------151719201917-----------|
|17~--16~---171917s--|------------151719------------2019171617~|
|--------------------|------141617-----------------------------|
|--------------------|141617-----------------------------------|
|--------------------|-----------------------------------------|
|--------------------|-----------------------------------------|

A

Chorus

C

|-----------------|-------------------|
|-----------------|-------------------|
|-----------------|-------------------|
|11---------------|11-------11---11---|
|-9-99999999999999|-9-999999-9-99-9-99|
|-----------------|-------------------|

|----------------|-----------------------------|
|----------------|-----------------------------|
|----------------|-----------------------------|
|9---------------|12-----------------12-----12-|
|7-77777777777777|14-141414141414141414-141414-|
|----------------|-----------------------------|

|----------------|-------------------|
|----------------|-------------------|
|----------------|-------------------|
|11--------------|11-------11---11---|
|-9-9999999999999|-9-999999-9-99-9-99|
|----------------|-------------------|

|-------------------------|------------------------------|
|-------------------------|------------------------------|
|-------------------------|------------------------------|
|14---------12-----11-----|12-------------11-------------|
|12-1212121212-121212-1212|14-14141414141414-141414141414|
|-------------------------|------------------------------|x2

|-------------------------------|-----------------------------|
|-------------------------------|-----------------------------|
|-------------------------------|-----------------------------|
|10-----------------------------|10-------------10-----10-----|
|12-1212121212121212121212121212|12-12121212121212-121212-1212|
|-------------------------------|-----------------------------|

|-------------------------------|-------------------------------|
|-------------------------------|-------------------------------|
|-------------------------------|-------------------------------|
|9------------------------------|12-----------------------------|
|10-1010101010101010101010101010|14-1414141414141414141414141414|
|-------------------------------|-------------------------------|x4

|----------------|
|----------------|
|----------------|
|14--------------|
|12--------------|
|----------------|

End



.  - palm mute                          /  - slide up to
\  - slide down to                      ~  - vibrato
"  - tremelo picking                    () - ghost note
p  - pull off                           h  - hammer-on
tr - trill notes                        fb - full bend (1step)
< > - harmonic

  Visit MetalTabs.com for more metal tablature

bottom separator

Contact Us | Privacy Policy | Disclaimer | Legal Notice
Copyright © 2001-2014 MetalTabs.com. All Rights Reserved.