top separator

Home

Forum

What's New

Submit a Tab

FAQ

Links

Contact Us

Link to Us

MuSpy.com

MetalTabs.com logo

Bands

0-9

A

B

C

D

E

F

G

H

I

J

K

L

M

N

O

P

Q

R

S

T

U

V

W

X

Y

Z

Search

What

Where
 

Norther - "Blackhearted" Guitar Tab

Plain Text Version
More Norther Tabs

Hits: 3334
Updated: 2004-08-21 14:42:56

 

By:

sendpm.gif

email.gif

Important note
This tab is available online because we obtained explicit permission from Norther or their label.


#----------------------------------PLEASE NOTE---------------------------------#
#This file is the author's own work and represents their interpretation of the #
#song. You may only use this file for private study, scholarship, or research. #
#Unless specified otherwise, this is NOT an official tab from the band members.#
#------------------------------------------------------------------------------#

  Visit MetalTabs.com for more metal tablature
  
Band :  Norther
Album : MIrror Of Madness
Song :  Blackhatred

Label : Spinefarm

Tabber : Vader2
http://geocities.com/dark_interpretation         dark_interpretation@yahoo.com
Tuning Regular

Intro

|----------------|-----------------------------|
|5-----5-----5---|5-8---------8----------8-----|
|5-----5-----4---|512--------12---------12-----|
|7-77777-77777-77|7101010101010-1010101010-1010|
|----------------|/s---------------------------|
|----------------|-----------------------------|

|-----------------|----------------|
|-85----5-----5---|5-----5-----5---|
|129----9-----9---|5-----7-----7---|
|10777777-77777-77|7-77777-77777-77|
|/s---------------|----------------|
|-----------------|----------------|x4

|----------------|
|----------------|
|----------------|
|7---------------|
|7---------------|
|5---------------|

Keyboard

A

|----------------|----------------|----------------|----------------|
|----------------|----------------|----------------|----------------|
|----------------|----------------|----------------|----------------|
|----------------|----------------|----------------|7------10-------|
|----------------|----------------|----------------|5-------8-------|
|----------------|----------------|----------------|----------------|

Intro

|----------------|
|----------------|
|----------------|
|5.------77.-----|
|3.------55.-----|
|----------------|

B

|----------------|-------------------|--------------------|----------------|
|----------------|-------------------|--------------------|----------------|
|----------------|-------------------|--------------------|----------------|
|9-----9-----9---|10-----10-----10---|77991010779910107799|4455774455774455|
|7-77777-77777-77|-7-7777-7-7777-7-77|--------------------|----------------|
|----------------|-------------------|--------------------|----------------|

|----------------|-------------------|----------------|----------------|
|----------------|-------------------|----------------|----------------|
|----------------|-------------------|----------------|----------------|
|9-----9-----9---|10-----10-----10---|5-----5-----5---|4-----4-----4---|
|7-77777-77777-77|-7-7777-7-7777-7-77|7-77777-77777-77|5-55555-55555-55|
|----------------|-------------------|----------------|----------------|

|----------------|-------------------|--------------------|----------------|
|----------------|-------------------|--------------------|----------------|
|----------------|-------------------|--------------------|----------------|
|9-----9-----9---|10-----10-----10---|77777799999910101010|7777775555554444|
|7-77777-77777-77|-9-9999-9-9999-9-99|--------------------|----------------|
|----------------|-------------------|--------------------|----------------|

|----------------|-------------------|----------------|----------------|
|----------------|-------------------|----------------|----------------|
|----------------|-------------------|----------------|----------------|
|9-----9-----9---|10-----10-----10---|5-----5-----5---|4---------------|
|7-77777-77777-77|-9-9999-9-9999-9-99|7-77777-77777-77|5---------------|
|----------------|-------------------|----------------|----------------|

Chorus

|8----------10s12|10------------8s7|-----------------|8---10-8-7------7|
|----------------|-----------------|10---------------|--------------10-|
|----------------|-----------------|-----------------|-----------------|
|----------------|-----------------|7----------------|-----------------|
|7---------------|5----------------|5----------------|3----------------|
|5---------------|3----------------|-----------------|11111111111111111|

Intro

Guitar Solo

|-t----------t---t---t---t---t--|-t----------t---t---t---t---t--|
|1713108101317131512171213121512|1512108101215121312151213121512|
|--p-p-ph-h---p---p---p---p---p-|--p-p-ph-h---p---p---p---p---p-|
|-------------------------------|-------------------------------|
|-------------------------------|-------------------------------|
|-------------------------------|-------------------------------|

|-t--------t---t---t---t-----|2219211719151714-----------|
|13108581013101210131012~~---|--p---p---p---p------------|
|--p-pp-h---p---p---p--------|---------------------------|
|----------------------------|--------------------14~----|
|----------------------------|---------------------------|
|----------------------------|---------------------------|

|--------------------------------|--1215C.U----15----|
|--------------------------------|15-----------------|
|----------------------12----1214|-------------------|
|------12----1214121415--1415----|-------------------|
|121315--1315--------------------|-------------------|
|--------------------------------|-------------------|

|----------------------------|-------------------------------|
|171513171513----------------|-------------------------------|
|------------1614161412161412|-------------------------------|
|----------------------------|1715171514171514---------------|
|----------------------------|----------------171514171514---|
|----------------------------|----------------------------17~|

|------------------|--------------------|
|------------------|--------------------|
|5~---4--7--5~--4--|----------4---------|
|------------------|5----7---------5----|
|------------------|--------------------|
|------------------|--------------------|

|--------------------------------|--------------------|
|------------1213151312----------|--------------------|
|------111214----------141211----|--------------------|
|101214----------------------1412|1091012109----------|
|--------------------------------|----------12108~----|
|--------------------------------|--------------------|

|--------------------121315~----|201917------------------------------|
|----------------1315-----------| | | |201917201917------  _____-----|
|------------1214---------------| | | | | | | | | |191716 | | | |----|
|------121315-------------------|-----6------ | | | | | |16171917----|
|121315-------------------------|------------------6-------------17--|
|-------------------------------|------------------------------------|

B

Chorus

Keyboard Solo

|----------------|-----------------|-----------------|-----------------|
|----------------|-----------------|-----------------|-----------------|
|----------------|-----------------|-----------------|-----------------|
|----------------|-----------------|-----------------|-----------------|
|77.-----77.-----|-----------------|77.-----77.------|-----------------|
|55.-----55.-----|-----------------|55.-----55.------|-----------------|x2


|----------------|-----------------|--------------------|-------------------|
|----------------|-----------------|--------------------|-------------------|
|----------------|-----------------|--------------------|-------------------|
|---------------7~~~~--------------|1010.-----1010.----9~~~~----------------|
|77.-----77.----5~~~~--------------|-8-8.------8-8.----7~~~~----------------|
|55.-----55.-----|-----------------|--------------------|-------------------|

|----------------|-----------------|--------------------|-------------------|
|----------------|-----------------|--------------------|-------------------|
|----------------|-----------------|--------------------|-------------------|
|77.-----77.----5~~~~--------------|55.------55.---- 5~~~~------------------|
|55.-----55.----3~~~~--------------|33.------33------2~~~~------------------|
|----------------|-----------------|--------------------|-------------------|x2

Chorus

|8----------10s12|10------------8s7|-----------------|8---10-8-7------7|
|----------------|-----------------|10---------------|--------------10-|
|----------------|-----------------|-----------------|-----------------|
|----------------|-----------------|7----------------|-----------------|
|7---------------|5----------------|5----------------|3----------------|
|5---------------|3----------------|-----------------|11111111111111111|

|8----------10s12|10------------8s7|-----------------|8---10-8-7-----7|
|----------------|-----------------|10---------------|-------------10-|
|----------------|-----------------|-----------------|----------------|
|----------------|-----------------|7----------------|----------------|
|7---------------|5----------------|5----------------|3-------553322--|
|5---------------|3----------------|-----------------|11111111------11|x2

|----------------|-----------------|-----------------|-----------------|
|----------------|-----------------|-----------------|-----------------|
|----------------|-----------------|-----------------|-----------------|
|----------------|-----------------|7----------------|-----------------|
|7---------------|5----------------|5----------------|3-------55.------|
|5---------------|3----------------|-----------------|1-------33.------|

|--------------|
|--------------|
|--------------|
|--------------|
|7~~~----------|
|5~~~----------|




.  - palm mute                          /  - slide up to
\  - slide down to                      ~  - vibrato
"  - tremelo picking                    () - ghost note
p  - pull off                           h  - hammer-on
tr - trill notes                        fb - full bend (1step)
< > - harmonic

  Visit MetalTabs.com for more metal tablature

bottom separator

Contact Us | Privacy Policy | Disclaimer | Legal Notice
Copyright © 2001-2014 MetalTabs.com. All Rights Reserved.