top separator

Home

Forum

What's New

Submit a Tab

FAQ

Links

Contact Us

Link to Us

MuSpy.com

MetalTabs.com logo

Bands

0-9

A

B

C

D

E

F

G

H

I

J

K

L

M

N

O

P

Q

R

S

T

U

V

W

X

Y

Z

Search

What

Where
 

Autopsy - "Charred Remains" Guitar Tab

Plain Text Version
More Autopsy Tabs

Hits: 6738
Rated: 5.00 out of 5 (20 votes)
Updated: 2004-08-21 14:42:06

 

By:

sendpm.gif

email.gif

Important note
This tab is available online because we obtained explicit permission from Autopsy or their label.


#----------------------------------PLEASE NOTE---------------------------------#
#This file is the author's own work and represents their interpretation of the #
#song. You may only use this file for private study, scholarship, or research. #
#Unless specified otherwise, this is NOT an official tab from the band members.#
#------------------------------------------------------------------------------#

  Visit MetalTabs.com for more metal tablature
  
Band: Autopsy
Album: Severed Survival
Song: Charred Remains

Copyright: Peaceville 1993,1994
Version 1.0 - August 20, 2004

Transcribed By: Volosnankovyzuzik
Email:          Porcupinesbulge@yahoo.com

- palm mute              /- slide up to
\  - slide down to       ~  - vibrato
h  - hammer on           b  - Bend
p  - pull off            Suffixes for bend
t  - tap                 f  - full bend    h - half bend
ph - pinched harmonic    q  - quarter bend t - tap bend
*  - see comment         ^  - Hold bend    r release bend
x  - Stuccatto           ~  - vibrato bend
.  - slight palm mute    () - ghost note, sustained note
"  - tremolo note        <> - Trill

Tunning C F B E G D

Intro:
Guitar 2
Riff A
|----------------------------------------|
|----------------------------------------|
|----------------------------------------|
|5---------5---------5---------5---------|
|5---------5---------5---------5---------|
|3---------3---------3---------3---------|

Guitar 1
|----------------------------------------|
|----------------------------------------|
|----------------------------------------|
|----------------------------------------|
|5-6-5-5-4-5-6-5-5-4-5-6-5-5-4-5-6-5-5-4-|
|-3-3-3-3-3-3-3-3-3-3-3-3-3-3-3-3-3-3-3-3|

Both Gtrs
Riff B
|----------------------------------------------------------------|
|----------------------------------------------------------------|
|----------------------------------------------------------------|
|----7---3-----------7---3-----------7---3-----------7---3-------|
|5---5---1---4---5---5---1---4---5---5---1---4---5---5---1---4---|
|3-----------2---3-----------2---3-----------2---3-----------2---|

Verse #1
Both Guitars
Riff C
|----------------------------------------------------------------|
|----------------------------------------------------------------|
|----------------------------------------------------------------|
|----------------------------------------------------------------|
|-------3-----3---------5---------------3-----3---------5--------|
|4444444--4444-43-333333--3333334-444444--4444-43-333333--3333334|

|----------------------------------------------------------------|
|----------------------------------------------------------------|
|----------------------------------------------------------------|
|----------------------------------------------------------------|
|-------3-----3---------5---------------3-----3---------5-----5--|
|-444444--4444-43-333333--3333334-444444--4444-43-333333--3333-34|

|---------------|
|---------------|
|---------------|
|---------------|
|-------3-----3-|
|-444444--4444-4| 

Verse #2
Guitar 2
Riff A
|----------------------------------------|
|----------------------------------------|
|----------------------------------------|
|5---------5---------5---------5---------|
|5---------5---------5---------5---------|
|3---------3---------3---------3---------|

Guitar 1
|----------------------------------------|
|----------------------------------------|
|----------------------------------------|
|----------------------------------------|
|5-6-5-5-4-5-6-5-5-4-5-6-5-5-4-5-6-5-5-4-|
|-3-3-3-3-3-3-3-3-3-3-3-3-3-3-3-3-3-3-3-3|

Riff C
|----------------------------------------------------------------|
|----------------------------------------------------------------|
|----------------------------------------------------------------|
|----------------------------------------------------------------|
|-------3-----3---------5---------------3-----3---------5--------|
|4444444--4444-43-333333--3333334-444444--4444-43-333333--3333334|

|----------------------------------------------------------------|
|----------------------------------------------------------------|
|----------------------------------------------------------------|
|----------------------------------------------------------------|
|-------3-----3---------5---------------3-----3---------5-----5--|
|-444444--4444-43-333333--3333334-444444--4444-43-333333--3333-34|

|---------------------|
|---------------------|
|---------------------|
|---------------5-----|
|-------3-----3-5-----|
|-444444--4444-43-----| 

Gtr 1
Riff D
|------------------------------------------------|
|------------------------------------------------|
|------------------------------------------------|
|------------------------------------------------|
|------------------------------------------------|
|3-33334-44443-33333-4-4-3-33334-44442-22222-4-2-|

|------------------------------------------------------------------|
|------------------------------------------------------------------|
|------------------------------------------------------------------|
|------------------------------------------------------------------|
|------------------------------------------------------------------|
|3-33334-44443-33334-4-4-3---2-3-6-3-2-----------1--1--1--4--4--4--|

|------------------------------------------------|
|------------------------------------------------|
|------------------------------------------------|
|------------------------------------------------|
|------------------------------------------------|
|3-33334-44443-33333-4-4-3-33334-44442-22222-4-2-|

|------------------------------------------------------------------|
|------------------------------------------------------------------|
|------------------------------------------------------------------|
|------------------------------------------------------------------|
|------------------------------------------------------------------|
|3-33334-44443-33334-4-4-3---2-3-6-3-2-----------1--1--1--4--4--4--|

At the same time Riff D for the Gtr. 2
|------------------------------------------------|
|------------------------------------------------|
|------------------------------------------------|
|------------------------------------------------|
|5-55556-66665-55555-6-6-5-55556-66664-44444-4-4-|
|------------------------------------------------|

|------------------------------------------------------------------|
|------------------------------------------------------------------|
|------------------------------------------------------------------|
|------------------------------------------------------------------|
|5-55556-66665-55555-6-6-5---4-5-8-5-4-----------3--3--3--6--6--6--|
|------------------------------------------------------------------|

|------------------------------------------------|
|------------------------------------------------|
|------------------------------------------------|
|------------------------------------------------|
|5-55556-66665-55555-6-6-5-55556-66664-44444-4-4-|
|------------------------------------------------|

|------------------------------------------------------------------|
|------------------------------------------------------------------|
|------------------------------------------------------------------|
|------------------------------------------------------------------|
|5-55556-66665-55555-6-6-5---4-5-8-5-4-----------3--3--3--6--6--6--|
|------------------------------------------------------------------|

Riff B
Both guitars
|----------------------------------------------------------------|
|----------------------------------------------------------------|
|----------------------------------------------------------------|
|----7---3-----------7---3-----------7---3-----------7---3-------|
|5---5---1---4---5---5---1---4---5---5---1---4---5---5---1---4---|
|3-----------2---3-----------2---3-----------2---3-----------2---|

Riff E
Both Guitars
|----------------------------------------------------------------|
|----------------------------------------------------------------|
|----------------------------------------------------------------|
|----------------------------------------------------------------|
|--------------5-------------------------------5-----------------|
|33333333222222-6555555554444444433333333222222-65555555544444444|

|----------------------------------------------------------------|
|----------------------------------------------------------------|
|----------------------------------------------------------------|
|----------------------------------------------------------------|
|--------------5-------------------------------5-----------------|
|33333333222222-6555555554444444433333333222222-65555555544444444|

|--------|
|--------|
|--------|
|--------|
|--------|
|33333333|

Riff F
Both Guitars
|----------------------------------------------------------------|
|----------------------------------------------------------------|
|----------------------------------------------------------------|
|----------------------------------------------------------------|
|------------------------------------------------------------3---|
|2---2-2-22222-3-2---2-2-22222-3-1---1-1-11111-1-4-4-44444444--4-|
         ..... .         ..... .         ..... .

|----------------------------------------------------------------|
|----------------------------------------------------------------|
|----------------------------------------------------------------|
|----------------------------------------------------------------|
|------------------------------------------------------------3---|
|2---2-2-22222-3-2---2-2-22222-3-1---1-1-11111-1-4-4-44444444--4-|
         ..... .         ..... .         ..... .

|----------------------------------------------------------------|
|----------------------------------------------------------------|
|----------------------------------------------------------------|
|----------------------------------------------------------------|
|------------------------------------------------------------3---|
|2---2-2-22222-3-2---2-2-22222-3-1---1-1-11111-1-4-4-44444444--4-|
         ..... .         ..... .         ..... .

|----------------------------------------------------------------|
|----------------------------------------------------------------|
|----------------------------------------------------------------|
|----------------------------------------------------------------|
|--------------------------------------------------------3-----3-|
|2---2-2-22222-3-2---2-2-22222-3-1---1-1-11111-1-4-444444--4444-4|
         ..... .         ..... .         ..... .

|-----------------|
|-----------------|
|-----------------|
|-----------------|
|--------5-----5--|
|3-333333--3333-34|

Guitar 1 plays a fast random note solo while guitar 2 plays
Riff C

|----------------------------------------------------------------|
|----------------------------------------------------------------|
|----------------------------------------------------------------|
|----------------------------------------------------------------|
|-------3-----3---------5---------------3-----3---------5--------|
|4444444--4444-43-333333--3333334-444444--4444-43-333333--3333333|

|----------------------------------------------------------------|
|----------------------------------------------------------------|
|----------------------------------------------------------------|
|----------------------------------------------------------------|
|--------3---- 3---------5---------------3-----3---------5-------|
|4-444444--4444-43-333333--3333334-444444--4444-43-333333--333333|

Riff G
Both Guitars
|--------------------------------------------|
|--------------------------------------------|
|--------------------------------------------|
|--------------------------------------------|
|--------------------------------------------|
|3---2---1---3---2---1---3---2---1---3---2---|

CODA: Guitar 1
|----------------------------------------|
|----------------------------------------|
|----------------------------------------|
|3---------------------------------------|
|3----------------------1-0---0----------|
|1-------------1-4bh5-2-----2---4-1-4bh5-|


|--------------------------------------|
|--------------------------------------|
|--------------------------------------|
|--------------------------------------|
|--1-0---0------------1-0---0----------|
|2-----2---4-1-4bh5-2-----2---4-1-4bh5-|

|--------------------------------------|
|--------------------------------------|
|--------------------------------------|
|--------------------------------------|
|--1-0---0------------1-0---0----------|
|2-----2---4-1-4bh5-2-----2---4-1-4bh5-|

|-----------------------|
|-----------------------|
|-----------------------|
|-------------------4\--|
|--1-0---0----------4\--|
|2-----2---4-1-4bh5-2\--|

CODA: Guitar 2
|-----------------------------------|
|-----------------------------------|
|-----------------------------------|
|3----------------------------------|
|3----------------------------------|
|1---------------------------1-4bh5-|


|--------------------------------------|
|--------------------------------------|
|--------------------------------------|
|--------------------------------------|
|--1-0---0------------1-0---0----------|
|2-----2---4-1-4bh5-2-----2---4-1-4bh5-|

|--------------------------------------|
|--------------------------------------|
|--------------------------------------|
|--------------------------------------|
|--1-0---0------------1-0---0----------|
|2-----2---4-1-4bh5-2-----2---4-1-4bh5-|

|-----------------------|
|-----------------------|
|-----------------------|
|-------------------4\--|
|--1-0---0----------4\--|
|2-----2---4-1-4bh5-2\--|

END

  Visit MetalTabs.com for more metal tablature

bottom separator

Contact Us | Privacy Policy | Disclaimer | Legal Notice
Copyright © 2001-2014 MetalTabs.com. All Rights Reserved.