top separator

Home

Forum

What's New

Submit a Tab

FAQ

Links

Contact Us

Link to Us

MuSpy.com

MetalTabs.com logo

Bands

0-9

A

B

C

D

E

F

G

H

I

J

K

L

M

N

O

P

Q

R

S

T

U

V

W

X

Y

Z

Search

What

Where
 

Vintersorg - "A Microscopical Macrocosm" Guitar Tab

Plain Text Version
More Vintersorg Tabs

Hits: 3404
Rated: 5.00 out of 5 (1 vote)
Updated: 2004-08-21 14:41:28

 

By:

Otiz

sendpm.gif

email.gif

Important note
This tab is available online because we obtained explicit permission from Vintersorg or their label.


#----------------------------------PLEASE NOTE---------------------------------#
#This file is the author's own work and represents their interpretation of the #
#song. You may only use this file for private study, scholarship, or research. #
#Unless specified otherwise, this is NOT an official tab from the band members.#
#------------------------------------------------------------------------------#

  Visit MetalTabs.com for more metal tablature
  
Song: A Microscopical Macrocosm
Artist: Vintersorg
Album: The Focusing Blur

Tabbed by Finnbogi the Icelander (otiz@d10.is)

Standard tuning (EADGBe)
Slide = / \
PM = Palm Mute
h = Hammer-on
p = Pull-off

Intro
e |-9--------------9------9h10p9--------------------|
B |----12--12-12------12---------12-----------------|
G |-11-----9--9----11-------------------------------|
D |-------------------------------------------------|
A |-------------------------------------------------|
E |-------------------------------------------------|

e |-9--------------9--------------------------------|
B |----12--12-12------12---------12-----------------|
G |-11-----9--9----11---------11--------------------|
D |---------------------------9---------------------|
A |-------------------------------------------------|
E |-------------------------------------------------|

e |-------------------------------------------------|
B |-------12----------------------------------------|
G |-11h14-------------------------------------------|
D |-------------------------------------------------|
A |-------------------------------------------------|
E |-------------------------------------------------|


Verse 1
e |-7----10----5------------------------------------|
B |-7----10----5--------0-----0---------------------|
G |-7----10----5------0-----0-----0-----------------|
D |-9----12----7------------------------------------|
A |-9----12----7---/8-----7-------------------------|
E |-7----10----5----------------8-------------------|

e |-7----10----10-----------------------------------|
B |-7----10----10-----------------------------------|
G |-7----10----10-----------------------------------|
D |-9----12----12-----------------------------------|
A |-9----12----12----x-12-12-12-12-10-10------------|
E |-7----10----10----x-10-10-10-10\8-8--------------|


Verse 2
e |-7----10----5------------------------------------|
B |-7----10----5------------------------------------|
G |-7----10----5------------------------------------|
D |-9----12----7------------------------------------|
A |-9----12----7------------------------------------|
E |-7----10----5------------------------------------|

e |-7----10-----------------------------------------|
B |-7----10-----------------------------------------|
G |-7----10-----------------------------------------|
D |-9----12-----------------------------------------|
A |-9----12----------x-12-12-12-12-10-10------------|
E |-7----10----------x-10-10-10-10\8-8--------------|

Chorus listen to recording for pattern
e |-5----6--6--6----5-------------------------------|
B |-6----6--6--6----6----5--6--8--------------------|
G |-7----7--7--7----7----5--7--9--------------------|
D |-7----8--8--8----7----7--8--10-------------------|
A |-5----8--8--8----5----7--8--10-------------------|
E |------6--6--6---------5--6--8--------------------|

e |-9--------9---------/12--------------------------|
B |----12-12---12----12-----------------------------|
G |-11----9--9----11----9---------------------------|
D |-------------------------------------------------|
A |-------------------------------------------------|
E |-------------------------------------------------|

Chorus
Intro

Solo
e |-------------------------------------------------|
B |-------------------------------------------------|
G |--------------------------0-h2-2--3--3/5---------|
D |-7-----9-----10/----0-2-3----------------3-------|
A |-5-0-0-7-0-0-8/---0------------------------------|
E |-------------------------------------------------|
PM    . .   . .

e |-------------------------------------------------|
B |-------------------------------------------------|
G |-------------------10-----9-----7-----10---9--7--|
D |-5-5h7-8-7---------10-----9-----------10---9-----|
A |---------------0-0----0-0---0-0---0-0----0-------|
E |-------------------------------------------------|
PM                . .    . .   . .   . .    .

e |-------------------------------------------------|
B |----3---3--------5-6-8-6-5-----------------------|
G |-/3---3----3--/5---------------------------------|
D |-------------------------------------------------|
A |-------------------------------------------------|
E |-------------------------------------------------|

e |--------------------------------10/12-13-13/15---|
B |---------------------------8/10---------------13-|
G |--------------------7-9-10-----------------------|
D |-7-----9-----10/--7------------------------------|
A |-5-0-0-7-0-0-8/----------------------------------|
E |-------------------------------------------------|
PM    . .   . .

e |-12-12-13-12--10--8--6-6-8-5-6---5---------------|
B |-13-13-13-13--11--10-6---------8---6-8/11-10-9-10|
G |-------------------------------------------------|
D |-------------------------------------------------|
A |-------------------------------------------------|
E |-------------------------------------------------|


Chorus

Then this in the chorus
e |-------------------------------------------------|
B |-------------------------------------------------|
G |-7-------------7---------------------------------|
D |-7--8--8--8----7--7--8--10-----------------------|
A |-5--8--8--8----5--7--8--10-----------------------|
E |----6--6--6-------5--6--8------------------------|

  Visit MetalTabs.com for more metal tablature

bottom separator

Contact Us | Privacy Policy | Disclaimer | Legal Notice
Copyright © 2001-2014 MetalTabs.com. All Rights Reserved.