top separator

Home

Forum

What's New

Submit a Tab

FAQ

Links

Contact Us

Link to Us

MetalTabs.com logo

Bands

0-9

A

B

C

D

E

F

G

H

I

J

K

L

M

N

O

P

Q

R

S

T

U

V

W

X

Y

Z

Search

What

Where
 

Vintersorg - "Matrix Odyssey" Guitar Tab

Plain Text Version
More Vintersorg Tabs

Hits: 2952
Rated: 5.00 out of 5 (1 vote)
Updated: 2004-08-20 05:05:27

 

By:

Otiz

sendpm.gif

email.gif

Important note
This tab is available online because we obtained explicit permission from Vintersorg or their label.


#----------------------------------PLEASE NOTE---------------------------------#
#This file is the author's own work and represents their interpretation of the #
#song. You may only use this file for private study, scholarship, or research. #
#Unless specified otherwise, this is NOT an official tab from the band members.#
#------------------------------------------------------------------------------#

  Visit MetalTabs.com for more metal tablature
  
Song: Matrix Odyssey
Artist: Vintersorg
Album: The Focusing Blur

Tabbed by Finnbogi the Icelander (otiz@d10.is)

Standard tuning (EADGBe)
Slide = / \
PM = Palm Mute
Tr = Tremolo
h = Hammer-on
p = Pull-off

Riff 1
Guitar I                                        1        2
e |------------------------------------------|------|-------------|
B |------------------------------------------|------|--5-4--------|
G |------------------------------------------|-4--4-|------4------|
D |---------------2----------------2-2-----2-|------|----------5--|
A |-0-0-0-0-2-3-5----0-0-0-0-2-3-5-----0-0---|------|-------------|
E |------------------------------------------|------|-------------|
PM  . . . . . .      . . . . . .       . .

Guitar II something like this, hard to hear
e |---0---------------------------------------------|
B |-----0-------------------------------------------|
G |-------7-----------------------------------------|
D |---------5------------------7-7----------5h7-5---|
A |-0----------------0-5h7-5---5-5--------7---------|
E |-----------------------------------0h5-----------|

e |---0---------------------------------------------|
B |-----0-------------------------------------------|
G |-------7-----------------------------------------|
D |---------5------------------5-5-5-5--2-2-5h7-5---|
A |-0----------------0-5h7-5---3-3-3-3--0-0---------|
E |-------------------------------------------------|
PM                             . . . .  . .


Riff 2
Guitars I&II
e |-------------------------------------------------|
B |-------------------------------------------------|
G |------------5---/7--5----------------------------|
D |-2-----4-5--x----x--x----------------------------|
A |-0-0-0-2-3--3-0-/5--3----------------------------|
E |-------------------------------------------------|
PM    . .

Guitar I
e |-------------------------------------------------|
B |-------------------------------------------------|
G |----------------2-----4--------------------------|
D |-2------4--5--3---3-5---5------------------------|
A |-0-0000-2--3-------------------------------------|
E |-------------------------------------------------|
PM    ....

Guitar II
e |-------------------------------------------------|
B |-------------------------------------------------|
G |--------5-4-2---2-----4--------------------------|
D |-2------------3---3-5---5------------------------|
A |-0-0000------------------------------------------|
E |-------------------------------------------------|
PM    ....

Guitar I&II
e |-------------------------------------------------|
B |-------------------------------------------------|
G |-5-0-1-------0-1-2-3-4---------------------------|
D |-------3---4-------------------------------------|
A |-------------------------------------------------|
E |-------------------------------------------------|


Riff 3
Guitar I
e |---------------------------|---------------------|
B |---------------------------|---------------------|
G |---------------------------|---------------------|
D |---------------------------|---------------------|
A |-0---0---------------------|--0---0---7--8--9----|
E |---3-------1--------3------|----3-----5--6--7----|
PM  . . .                        . . .

Guitar II last three notes acoustic
e |---------------------------|----------5--6--7----|
B |---------------------------|---------------------|
G |---------------------------|---------------------|
D |---------------------------|---------------------|
A |-0---0---------------------|--0---0--------------|
E |---3-------1--------3------|----3----------------|
PM  . . .                        . . .

Guitar I
e |-------------------------------------------------|
B |-------------------------------------------------|
G |-------------------------------------------------|
D |-------------------------------------------------|
A |-7-8-9-7-8-9-10----------------------------------|
E |-5-6-7-5-6-7-8-----------------------------------|

Guitar II acoustic here
e |--5-6-7-5-6-7-8\---------------------------------|
B |-------------------------------------------------|
G |-------------------------------------------------|
D |-------------------------------------------------|
A |-------------------------------------------------|
E |-------------------------------------------------|

Riff 1
Riff 2
Riff 3

Riff 4
Guitar I
Tr  , ,  , ,  , ,  , ,  , ,  ,          , ,  , ,
e |-------------------------------------------------|
B |-----------4-3--6-5------------------4-3--6-5----|
G |-5-4--5-4------------5-4--5----------------------|
D |-------------------------------------------------|
A |----------------------------0-2-3-0--------------|
E |-------------------------------------------------|
PM                             . . . .

Guitar II
Tr  ,         ,    ,    ,               ,    ,
e |-------------------------------------------------|
B |-------------------------------------------------|
G |-------------------------------------------------|
D |-----------1----3--------------------1----3------|
A |-3-------------------3------0-2-3-0--------------|
E |-------------------------------------------------|
PM                             . . . .

Guitar I
Tr  , ,  , ,  , ,  , ,  , ,  ,          , ,  , ,
e |-------------------------------------------------|
B |-----------4-3--6-5------------------4-3--6-5----|
G |-5-4--5-4------------5-4--5----------------------|
D |----------------------------0-2-3-0--------------|
A |-------------------------------------------------|
E |-------------------------------------------------|
PM                             . . . .

Guitar II
Tr  ,         ,    ,    ,               ,    ,
e |-------------------------------------------------|
B |-------------------------------------------------|
G |-------------------------------------------------|
D |-----------1----3-----------0-2-3-0--1----3------|
A |-3-------------------3---------------------------|
E |-------------------------------------------------|
PM                             . . . .


Solo not at all sure about some parts here
e |------------------------7\3---3/5-7----5---------|
B |-------------------------------------8-----------|
G |-7b9---7/5/4~~~~---------------------------------|
D |----------------------0--------------------------|
A |------------------0-3----------------------------|
E |-------------------------------------------------|
PM                   . . .
e |-12p10p8-0-0-0-------13-12-10--------------------|
B |---------------1--------------13-12-10-----------|
G |-----------------2---------------------10-9------|
D |-------------------2------------------------12---|
A |-------------------------------------------------|
E |-------------------------------------------------|

e |-------------------------------------------------|
B |-------------------------------------------------|
G |-------------------------------------------------|
D |-10-9--------------------------------------------|
A |------12-11-8-5/7--------------------------------|
E |-------------------------------------------------|

e |---------------22b24-22b24-22-17-----------------|
B |----------------------------------10-------------|
G |-------------------------------------12-9/12-----|
D |---------7-10------------------------------------|
A |-------7-----------------------------------------|
E |-3/5-8-------------------------------------------|

e |-------------------------------------------------|
B |-13----17----------------------------------------|
G |----14----14~~~----------------------------------|
D |-------------------------------------------------|
A |-------------------------------------------------|
E |-------------------------------------------------|

Riff 4

Solo 2
e |-1313p12p10--12p10p8--10p8p7-8p7p5-5-7-8-8-7h8p7-|
B |-------------------------------------------------|
G |-------------------------------------------------|
D |-------------------------------------------------|
A |-------------------------------------------------|
E |-------------------------------------------------|

e |-5--<5>------------------------------------------|
B |---6-----/6-5---5-----------------9h10-13-13-----|
G |--------------7---7-5--2////14\\\----------------|
D |-------------------------------------------------|
A |-------------------------------------------------|
E |-------------------------------------------------|

e |-10h12-13--------20b-19--------------------------|
B |-------16b-18p17---------------------------------|
G |-------------------------------------------------|
D |-------------------------------------------------|
A |-------------------------------------------------|
E |-------------------------------------------------|

Riff 3

  Visit MetalTabs.com for more metal tablature

bottom separator

Contact Us | Privacy Policy | Disclaimer | Legal Notice
Copyright © 2001-2014 MetalTabs.com. All Rights Reserved.