top separator

Home

Forum

What's New

Submit a Tab

FAQ

Links

Contact Us

Link to Us

MetalTabs.com logo

Bands

0-9

A

B

C

D

E

F

G

H

I

J

K

L

M

N

O

P

Q

R

S

T

U

V

W

X

Y

Z

Search

What

Where
 

Vintersorg - "The Thesis's Seasons" Guitar Tab

Plain Text Version
More Vintersorg Tabs

Hits: 2782
Rated: 5.00 out of 5 (1 vote)
Updated: 2004-08-20 05:05:07

 

By:

Otiz

sendpm.gif

email.gif

Important note
This tab is available online because we obtained explicit permission from Vintersorg or their label.


#----------------------------------PLEASE NOTE---------------------------------#
#This file is the author's own work and represents their interpretation of the #
#song. You may only use this file for private study, scholarship, or research. #
#Unless specified otherwise, this is NOT an official tab from the band members.#
#------------------------------------------------------------------------------#

  Visit MetalTabs.com for more metal tablature
  
Song: The Thesises Seasons
Artist: Vintersorg
Album: The Focusing Blur

Tabbed by Finnbogi the Icelander (otiz@d10.is)

Standard tuning (EADGBe)
Slide = / \
PM = Palm Mute
h = Hammer-on
b = bend
br = bend-release

Guitar I is left speaker, II is right.


Riff 1
Guitar I&II
e |-------------------------------------------------|
B |-------------------------------------------------|
G |-------------------------------------------------|
D |-9-9-9-9--9-9-9-9--9-9-9--7-7-7-7--7-7-7-7--7-7-7|
A |-7-7-7-7--7-7-7-7--7-7-7--7-7-7-7--7-7-7-7--7-7-7|
E |-5-5-5-5--5-5-5-5--5-5-5--5-5-5-5--5-5-5-5--5-5-5|

Fill 1 theres more but unclear, play with it
e |-------------------------------------------------|
B |-------------------------------------------------|
G |-------------------9-12--14-12-10\9-9------------|
D |-9---------9h10-12-------------------------------|
A |---10--------------------------------------------|
E |------12-----------------------------------------|
PM  . .  .


Riff 2
Guitar II
e |-------------------------------------------------|
B |--------------6----------------------------------|
G |-4/6--2-------5-----4/6--2-------5-4-------------|
D |-2/4--2-------3-----2/4--2-------5-5-------------|
A |-0----0---0-0-------0----0---0-0-----------------|
E |-------------------------------------------------|
PM           . .                . .

e |-------------------------------------------------|
B |-------------------------------------------3h4---|
G |-4/6--2-------5-----------4-----5--------------5-|
D |-2/4--2-------3--------------------5-------------|
A |-0----0---0-0-------0-2-3---2-3----3-3-3-3-------|
E |-------------------------------------------------|
PM           . .         . .   . .

Guitar I
e |-------------------------------------------------|
B |-------------------------------------------------|
G |----------------------------------------------5~-|
D |--2---2--2---2--2-4-5-----2---2--2---2--2-4-5-x--|
A |--0---0--0---0--0-2-3-----0---0--0---0--0-2-3-3~-|
E |----3------3----------3~----3------3-------------|
PM   . . .  . . .  .         . . .  . . .  .


Riff 3
Guitar I
e |-------------------------------------------------|
B |-------------------------------------------------|
G |-9----8-----------------------9b-9b-9br----------|
D |-9----8-----8--11-7------8h11------------8---7---|
A |-7----6-----8--11-7----0-----------------9---8---|
E |---8----7---6--9--5------------------------------|

e |-------------------------------------------------|
B |-------------------------------------------------|
G |-9----8------------------------------------------|
D |-9----8-----8--11-7------7-7--6-6--2--3/5/6------|
A |-7----6-----8--11-7----0-5-5--4-4--0--1/3/4------|
E |---8----7---6--9--5------------------------------|

Guitar II
e |-------------------------------------------------|
B |-------------------------------------------------|
G |-8b-8-------------6-5------8-8--11-11------------|
D |------9-10b-9-7-6-----8-7--x-x--x--x--8--7-------|
A |---------------------------6-6--9--9--x--x-------|
E |--------------------------------------6--5-------|

e |-------------------------------------------------|
B |-------------------------------------------------|
G |-8b-8------------------7-8-8-8--8-8--11-11-------|
D |------9-10b-9-7-9-10-9----------x-x--x--x--8--7--|
A |--------------------------------6-6--9--9--x--x--|
E |-------------------------------------------6--5--|

Riff 1
Riff 2
Riff 3

Then a keyboard break.

Riff 4
e |-------------------------------------------------|
B |-------------------------------------------------|
G |-------------------------------------------------|
D |-9-9-9-9----7-7-7-7----9-9-9-9----7-7-7-7--------|
A |-7-7-7-7----7-7-7-7----7-7-7-7----7-7-7-7--------|
E |-5-5-5-5----5-5-5-5----5-5-5-5----5-5-5-5--------|


Riff 3
Riff 4

Ends with this chord
e |-------|
B |-------|
G |-------|
D |-9~~~--|
A |-7~~~--|
E |-5~~~--|

  Visit MetalTabs.com for more metal tablature

bottom separator

Contact Us | Privacy Policy | Disclaimer | Legal Notice
Copyright © 2001-2014 MetalTabs.com. All Rights Reserved.