top separator

Home

Forum

What's New

Submit a Tab

FAQ

Links

Contact Us

Link to Us

MuSpy.com

MetalTabs.com logo

Bands

0-9

A

B

C

D

E

F

G

H

I

J

K

L

M

N

O

P

Q

R

S

T

U

V

W

X

Y

Z

Search

What

Where
 

Vintersorg - "The Essence" Guitar Tab

Plain Text Version
More Vintersorg Tabs

Hits: 4413
Rated: 4.25 out of 5 (4 votes)
Updated: 2004-08-19 04:42:15

 

By:

Otiz

sendpm.gif

email.gif

Important note
This tab is available online because we obtained explicit permission from Vintersorg or their label.


#----------------------------------PLEASE NOTE---------------------------------#
#This file is the author's own work and represents their interpretation of the #
#song. You may only use this file for private study, scholarship, or research. #
#Unless specified otherwise, this is NOT an official tab from the band members.#
#------------------------------------------------------------------------------#

  Visit MetalTabs.com for more metal tablature
  
Song: The Essence
Artist: Vintersorg
Album: The Focusing Blur
Napalm Records

Tabbed by Finnbogi the Icelander (otiz@d10.is)

Standard tuning (EADGBe) and Drop D (DADGBe)
p = Pull-off
h = Hammer-on
PM = Palm Mute
Tr = Tremolo
b = bend


CAPO on 2nd fret and drop d distorted guitar.

Intro
        Listen to record for strumming pattern
Guitar I
e |-0------------------0--------0------0------------|
B |-0--------7---------5--------4------0------------|
G |-0--------7---------5--------4------0------------|
D |-2--------7---------5--------4------2------------|
A |-2--------5---------3--------2------2------------|
E |-0----------------------------------0------------|

Then another guitar comes in and hits the chords once
Guitar II
e |-0--------2---------0--------0------0------------|
B |-0--------3---------5--------4------0-333-111-000|
G |-0--------2---------5--------4------0------------|
D |-2--------0---------5--------4------2------------|
A |--------------------3--------2------2------------|
E |------------------------------------0------------|

e |----------------------10-------------------------|
B |----------------10-12--------13--13-13p12--------|
G |-9~----12-11-12----------------------------------|
D |-------------------------------------------------|
A |-------------------------------------------------|
E |-------------------------------------------------|

e |-------------------------------------------------|
B |-13-12-10-12-10----------------------------------|
G |----------------12--9-11-12-11-12~---------------|
D |-------------------------------------------------|
A |-------------------------------------------------|
E |-------------------------------------------------|


Riff 1 Verse
Tr  ,  ,  ,  ,   ,              ,  ,
e |-------------------------------------------------|
B |-------------------------------------------------|
G |-------------------------------------------------|
D |-5--4--------------------------------------------|
A |-------7--6---7--2-4-5-2-4-5-4--5----------------|
D |-------------------------------------------------|

Tr  ,  ,  ,  ,   ,
e |-------------------------------------------------|
B |-------------------------------------------------|
G |-------------------------------------------------|
D |-5--4------------5---4---5---4-------------------|
A |-------7--6---7----------------------------------|
D |-------------------------------------------------|

Riff 2 Verse
e |-------------------------------------------------|
B |-------------------------------------------------|
G |-------------------------------------------------|
D |-5------4-------8---9--------------6--7----------|
A |---2222---2222--6---7--2-4-5-2-4-5-4--5----------|
D |-------------------------------------------------|
PM    ....   ....         . . . . . .

e |-------------------------------------------------|
B |-7------8-----------------------5-6-5h6p4--------|
G |-x------x-------------------4-7-----------5-4----|
D |-5------4-------8---9----------------------------|
A |---2222---2222--6---7--2-22----------------------|
D |-------------------------------------------------|
PM    ....   ....


Riff 3
Guitar I
e |----------------------------5-5b-----------------|
B |----------------4--5--8-5-8------8---------------|
G |-5-4---4--7-5-7----------------------------------|
D |-----7-------------------------------------------|
A |-------------------------------------------------|
D |-------------------------------------------------|

e |-------------------------------------------------|
B |----------------4--5-----------------------------|
G |-5-4---4--7-5-7-------7-5-5p4-4~-----------------|
D |-----7-------------------------------------------|
A |-------------------------------------------------|
D |-------------------------------------------------|

Guitar II clean or acoustic, play in some way
e |-------------------------------------------------|
B |-5--------7---------8----------------------------|
G |-5--------7---------9----------------------------|
D |-5--------7---------9----------------------------|
A |-3--------5---------7----------------------------|
E |-------------------------------------------------|


Riff 4 Chorus
Guitar I
e |-0------------------0--------0------0------------|
B |-0--------7---------5--------4------0------------|
G |-0--------7---------5--------4------0------------|
D |-2--------7---------5--------4------2------------|
A |-2--------5---------3--------2------2------------|
E |-0----------------------------------0------------|

Guitar II
e |----------------------10-------------------------|
B |----------------10-12--------13--13-13p12--------|
G |-9~----12-11-12----------------------------------|
D |-------------------------------------------------|
A |-------------------------------------------------|
E |-------------------------------------------------|

e |-------------------------------------------------|
B |-13-12-10-12-10----------------------------------|
G |----------------12--9-11-12-11-12~---------------|
D |-------------------------------------------------|
A |-------------------------------------------------|
E |-------------------------------------------------|


Riff 5
e |-------------------------------------------------|
B |-------------------------------------------------|
G |-9-----9-----7--7-----------------7--7-----------|
D |-9-----9-----7--7------9-7--------7--7-----------|
A |-7-7-7-7-7-7-5--5--777-----10-9-7-5--5-----------|
D |---2-2---2-2-------------------------------------|
PM    . .   . .       ... . . . . .

e |-------------------------------------------------|
B |----7--8-----5-7---------------------------------|
G |-9--------8--------------------------------------|
D |-x--------x--------------------------------------|
A |-7--------6--------------------------------------|
D |------------------222-222-222-222-222-222-222-4~-|
PM                   ... ... ... ... ... ... ...

e |-------------------------------------------------|
B |-------------------------------------------------|
G |-9-----9-----7--7-----------------7--7-----------|
D |-9-----9-----7--7------9-7--------7--7-----------|
A |-7-7-7-7-7-7-5--5--777-----10-9-7-5--5-----------|
D |---2-2---2-2-------------------------------------|
PM    . .   . .       ... . . . . .

e |-------------------------------------------------|
B |-------------------------------------------------|
G |--9---------11-----------------------------------|
D |--x---------x------------------------------------|
A |--7---------9------------------------------------|
D |------------------222-222-222-222-222-222-222-4~-|
PM                   ... ... ... ... ... ... ...


Riff 3 again without solo
        clean or acoustic, play in some way
e |-------------------------------------------------|
B |-5--------7---------8----------------------------|
G |-5--------7---------9----------------------------|
D |-5--------7---------9----------------------------|
A |-3--------5---------7----------------------------|
E |-------------------------------------------------|


Riff 4 Chorus
Guitar I
e |-0------------------0--------0------0------------|
B |-0--------7---------5--------4------0------------|
G |-0--------7---------5--------4------0------------|
D |-2--------7---------5--------4------2------------|
A |-2--------5---------3--------2------2------------|
E |-0----------------------------------0------------|

Guitar II
e |----------------------10-------------------------|
B |----------------10-12--------13--13-13p12--------|
G |-9~----12-11-12----------------------------------|
D |-------------------------------------------------|
A |-------------------------------------------------|
E |-------------------------------------------------|

e |-------------------------------------------------|
B |-13-12-10-12-10----------------------------------|
G |----------------12--9-11-12-11-12~---------------|
D |-------------------------------------------------|
A |-------------------------------------------------|
E |-------------------------------------------------|

Guitar III
e |-------------------------------------------------|
B |-------------------------------------------------|
G |-------------------------------------------------|
D |-2---------2---------4---------4-----------------|
A |-2---------2---------4---------4-----------------|
E |-0-0-0-0-0-0-0-0-0-0-2-2-2-2-2-2--0---2----------|
PM    . . . .   . . . .   . . . .

e |-------------------------------------------------|
B |-------------------------------------------------|
G |-------------------------------------------------|
D |-5---------7---------2---------2-----------------|
A |-5---------x---------2---------2-----------------|
D |-3-3-3-3-3-5-5-5-5-5-0-0-0-0-0-0-0-0-0-0---------|
PM    . . . .   . . . .   . . . .   . . . .

e |-------------------------------------------------|
B |-------------------------------------------------|
G |-------------------------------------------------|
D |-2---------2---------4---------4-----------------|
A |-2---------2---------4---------4-----------------|
E |-0-0-0-0-0-0-0-0-0-0-2-2-2-2-2-2--0---2----------|
PM    . . . .   . . . .   . . . .

e |-------------------------------------------------|
B |-------------------------------------------------|
G |--------------------h14-------h14----------------|
D |-5---------7-------------------------------------|
A |-5---------x-------------------------------------|
D |-3-3-3-3-3-5-5-5-5-5---0-0-0-0---0-0-0-0---------|
PM    . . . .   . . . .   . . . .   . . . .

  Visit MetalTabs.com for more metal tablature

bottom separator

Contact Us | Privacy Policy | Disclaimer | Legal Notice
Copyright © 2001-2014 MetalTabs.com. All Rights Reserved.