top separator

Home

Forum

FAQ

Contact Us

Link to Us

MetalTabs.com logo

Bands

0-9

A

B

C

D

E

F

G

H

I

J

K

L

M

N

O

P

Q

R

S

T

U

V

W

X

Y

Z

Therion - "Quetzalcoatl" Guitar Tab

Plain Text Version
More Therion Tabs

Hits: 2308
Rated: 4.00 out of 5 (4 votes)
Updated: 2004-08-19 04:39:10

By:


#----------------------------------PLEASE NOTE---------------------------------#
#This file is the author's own work and represents their interpretation of the #
#song. You may only use this file for private study, scholarship, or research. #
#Unless specified otherwise, this is NOT an official tab from the band members.#
#------------------------------------------------------------------------------#

  Visit MetalTabs.com for more metal tablature
  
Title: Quetzalcoatl
Artist: Therion
Tab: dead_locked@oscuridad.zzn.com

Intro:
Gtr I:
|-------------------------------------------|
|-5-----------------------------------------|
|---2-2--5/4-----5-4-4-2-2-7/-5-5/-4--4/-2--|
|------------5-5----------------------------|
|-------------------------------------------|
|-------------------------------------------|

|--------------------------|
|-5------------------------|
|---2-2--5/4-----5-4-4-2-2-|
|------------5-5-----------|
|--------------------------|
|--------------------------|
Gtr II:
|----------------------------------|  |---|
|----------------------------------|  |---|
|--------------------------------|X2|---|
|--------------------------------|  |-9-|
|--7-7-7-7/5-5-3-5-7-7-3/5/7-7-7---|  |-7-|
|--5-5-5-5/3-3-1-3-5-5-1/3/5-5-5---|  |-0-|
Verse:                                                          X2
|-------------------------------------------0---------------------|
|-0-----0-----0---0-----0-----0-1-------------1-------------------|
|--0-----0-----0---0-----0-------2-------2-----2---2-----------2|
|----2-----2---------2-----2-------1---1---------1---1-------1--|
|-------------------------------------2-----------------2---2-----|
|---------------------------------------------------------0-------|
                                                               X4
|-------------------------------------------0---------------------|
|-0-----0-----0---0-----0-----0-1-------------1---0---------------|
|--0-----0-----0---0-----0-------2-------2-----2---2-----------2|
|----2-----2---------2-----2-------1---1-------------1-------1--|
|-------------------------------------2-----------------2---2-----|
|---------------------------------------------------------0-------|
Chorus:
|-------------------------------------------------|
|-------------------------------------5-5-5-5-5-5-|
|-5-5-5-5-5-5-------------4-4-4-4-4-4-4-4-4-4-4-4-|
|-5-5-5-5-5-5-5-5-5-5-5-5-4-4-4-4-4-4-2-2-2-2-2-2-|
|-3-3-3-3-3-3-5-5-5-5-5-5-2-2-2-2-2-2-2-2-2-2-2-2-|
|-------------3-3-3-3-3-3-------------------------|

|-------------------------------------------------|
|-------------------------------------------------|
|-5-5-5-5-5-5-------------------------4-4-4-4-4-4-|
|-5-5-5-5-5-5-5-5-5-5-5-5-4-4-4-4-4-4-4-4-4-4-4-4-|
|-3-3-3-3-3-3-5-5-5-5-5-5-4-4-4-4-4-4-2-2-2-2-2-2-|
|-------------3-3-3-3-3-3-2-2-2-2-2-2-------------|
Bridge:
Gtr I                                    X4
|------------------------------------------|
|------------------------------------------|
|----------2-------4-4-4-4--2-2-2-2------|
|-2-2--4-5---5-4-2-------------------5-4-|
|------------------------------------------|
|------------------------------------------|
Gtr II                             X4
|------------------------------------|
|--5-5-5-5---------5-5-5-5--3-3-3-3--|
|-4-4-4-4---------4-4-4-4--2-2-2-2-|
|-2-2-2-2--5-4-2--2-2-2-2--0-0-0-0-|
|--2-2-2-2---------------------------|
|--0-0-0-0---------------------------|
  ..P.M...
|----------------------------------------|  |------|
|--5--5-5--5/------------5-5--------5-5--|  |-5--5-|
|-4--4-4--4/7--7/5/7/9--4-4--5/7/9-4-4-|  |-4--4-|
|-2--2-2--2/7--7/5/7/9--2-2--5/7/9-2-2-|X2|-2--2-|
|--2--2-2--2/5--5/3/5/7--2-2--3/5/7-2-2--|  |-2--2-|
|--0--0-0--0/--------/0--0-0--------0-0--|  |-0--0-|
Verse:
                                                               X4
|-------------------------------------------0---------------------|
|-0-----0-----0---0-----0-----0-1-------------1---0---------------|
|--0-----0-----0---0-----0-------2-------2-----2---2-----------2|
|----2-----2---------2-----2-------1---1-------------1-------1--|
|-------------------------------------2-----------------2---2-----|
|---------------------------------------------------------0-------|
Chorus:
|-------------------------------------------------|
|-------------------------------------5-5-5-5-5-5-|
|-5-5-5-5-5-5-------------4-4-4-4-4-4-4-4-4-4-4-4-|
|-5-5-5-5-5-5-5-5-5-5-5-5-4-4-4-4-4-4-2-2-2-2-2-2-|
|-3-3-3-3-3-3-5-5-5-5-5-5-2-2-2-2-2-2-2-2-2-2-2-2-|
|-------------3-3-3-3-3-3-------------------------|

|-------------------------------------------------|
|-------------------------------------------------|
|-5-5-5-5-5-5-------------------------4-4-4-4-4-4-|
|-5-5-5-5-5-5-5-5-5-5-5-5-4-4-4-4-4-4-4-4-4-4-4-4-|
|-3-3-3-3-3-3-5-5-5-5-5-5-4-4-4-4-4-4-2-2-2-2-2-2-|
|-------------3-3-3-3-3-3-2-2-2-2-2-2-------------|
Bridge:
Gtr I                                    X4
|------------------------------------------|
|------------------------------------------|
|----------2-------4-4-4-4--2-2-2-2------|
|-2-2--4-5---5-4-2-------------------5-4-|
|------------------------------------------|
|------------------------------------------|
Gtr II                             X4
|------------------------------------|
|--5-5-5-5---------5-5-5-5--3-3-3-3--|
|-4-4-4-4---------4-4-4-4--2-2-2-2-|
|-2-2-2-2--5-4-2--2-2-2-2--0-0-0-0-|
|--2-2-2-2---------------------------|
|--0-0-0-0---------------------------|
  ..P.M...
Gtr II
|----------------------------------------|
|--5--5-5--5/------------5-5--------5-5--|
|-4--4-4--4/7--7/5/7/9--4-4--5/7/9-4-4-|
|-2--2-2--2/7--7/5/7/9--2-2--5/7/9-2-2-|X4
|--2--2-2--2/5--5/3/5/7--2-2--3/5/7-2-2--|
|--0--0-0--0/--------/0--0-0--------0-0--|
Gtr I
|------------------------------------------|
|------------------------------------------|
|-4---------------------------------------|
|---2-2--5/4-----5-4-4-2-2--2/-4/-5/-4/-2-|
|-------------5-5--------------------------|

|----------------------------|
|----------------------------|
|--4-------------------------|
|----2-2--5/4-----5-4-4-2-2-|X2
|-------------5-5-----------|
|----------------------------|
|----------------------------|
Gtr I
|-------------|
|-------------|
|-------------|
|-------------|
|-3-2---------|
|-----3-3-2-0-|
Gtr II
|-------------|
|-----------5-|
|-5-4-------4-|
|-5-4-5-5-4-2-|
|-3-2-5-5-4-2-|
|-----3-3-2-0-|
        P.M.

  Visit MetalTabs.com for more metal tablature

bottom separator

Contact Us | Privacy Policy | Disclaimer
Copyright © 2001-2014 MetalTabs.com. All Rights Reserved.