top separator

Home

Forum

What's New

Submit a Tab

FAQ

Links

Contact Us

Link to Us

MetalTabs.com logo

Bands

0-9

A

B

C

D

E

F

G

H

I

J

K

L

M

N

O

P

Q

R

S

T

U

V

W

X

Y

Z

Search

What

Where
 

Gehenna - "Adimiron Black" Guitar Tab

Plain Text Version
More Gehenna Tabs

Hits: 3572
Rated: 3.67 out of 5 (3 votes)
Updated: 2005-09-14 20:08:05

 

By:

Daniil

sendpm.gif

email.gif

Important note
This tab is available online because we obtained explicit permission from Gehenna or their label.


#----------------------------------PLEASE NOTE---------------------------------#
#This file is the author's own work and represents their interpretation of the #
#song. You may only use this file for private study, scholarship, or research. #
#Unless specified otherwise, this is NOT an official tab from the band members.#
#------------------------------------------------------------------------------#

  Visit MetalTabs.com for more metal tablature
  
GEHENNA-Adimiron Black
Admiron Black-1998
Copyright Moonfog Records
Transcribed by Daniil Laletin
e-mail: dlaletin@mail.ru
version 1.5 June 2005

All corrections are welcome.

  " - tremolo
 / - slide down
 \ - slide up
 . - palm mute
 ~ - long sound
 x - rest
 p - pull off
 h - hammer on
 tr - trill
 () - ghost note, sustained note
 <> - let ring

Tuning from low to high: E A D G B E
====================================
Corrected: Fill 1, Riff 3
=========================

 Intro
|-------------------------------------------------|
|-------------------------------------------------|
|-------------------------------------------------|
|-2----------------------(2)----------------------|gtr 1
|-2----------------------(2)----------------------|
|-0----------------------(0)----------------------|
|
|-------------------------------------------------|
|-------------------------------------------------|
|---------<4>-----<4>-<4>---------<4>-----<4>-<4>-|
|-2---<2>-----<2>---------2---<2>-----<2>---------|gtr 2
|-2-----------------------2-----------------------|
|-0-----------------------0-----------------------|

|-------------------------------------------|
|-------------------------------------------|
|-3--------------------(3)------------------|
|-------------------------------------------|gtr 1
|-1--------------------(1)------------------|
|-------------------------------------------|
|
|-------------------------------------------|
|----------------------------------<2>------|
|---------<3>-<4>--<3>---------<3>------<3>-|
|-----<3>------------------<3>--------------|gtr 2
|-<1>------------------<1>------------------|
|-------------------------------------------|

|-------------------------------------------------|
|-------------------------------------------------|
|-------------------------------------------------|
|-2----------------------(2)----------------------|gtr 1
|-2----------------------(2)----------------------|
|-0----------------------(0)----------------------|
|
|-------------------------------------------------|
|-------------------------------------------------|
|---------<4>-----<4>-<4>---------<4>-----<4>-<4>-|
|-2---<2>-----<2>---------2---<2>-----<2>---------|gtr 2
|-2-----------------------2-----------------------|
|-0-----------------------0-----------------------|

|-------------------------------------------|
|-------------------------------------------|
|-3--------------------(3)------------------|
|-----------------------------------\-------|gtr 1
|-1--------------------(1)----------\-------|
|-------------------------------------------|
|
|-------------------------------------------|
|----------------------------------<2>------|
|---------<3>-<4>--<3>---------<3>------<3>-|
|-----<3>------------------<3>--------------|gtr 2
|-<1>------------------<1>------------------|
|-------------------------------------------|


 Riff 1
|-------------------------------------------------|
|-------------------------------------------------|
|---------<4>-----<4>-<4>---------<4>-----<4>-<4>-|
|-2---<2>-----<2>---------2---<2>-----<2>---------|
|-2-----------------------2-----------------------|
|-0-----------------------0-----------------------|

|-------------------------------------------|
|----------------------------------<2>------|
|---------<3>-<4>--<3>---------<3>------<3>-|
|-----<3>------------------<3>--------------|
|-<1>------------------<1>------------------|
|-------------------------------------------|



 Riff 2
|-----------------------------------------------------------------|
|--------<5>---------------------------------------------<2>------|
|-------------<4>---------------<3>-<4>--<3>---------<3>------<3>-|
|-2----------------<2>------<3>------------------<3>--------------|
|-2---------------------<1>------------------<1>------------------|
|-0---------------------------------------------------------------|

|-----------------------------------------------------------------|
|--------<5>-------<5>-----------------------------------<2>------|
|-------------<4>---------------<3>-<4>--<3>---------<3>------<3>-|
|-2-------------------------<3>------------------<3>--------------|
|-2---------------------<1>------------------<1>------------------|
|-0---------------------------------------------------------------|



 Fill 1
|---------|
|---------|
|---------|
|-6-------|
|-4-6-5-4-|
|---4-3-2-|



 Riff 3
|---------------------------------------|
|---------------------------------------|
|---------------------------------------|
|------------------------------------3"-|
|----2"-3"-2"----3"-4"-3"------2"-1"----|
|-0"----------1"----------4"------------|

|---------------------------------------|
|---------------------------------------|
|---------------------------------------|
|---------------------------------------|
|----2"-3"-2"----3"-4"-3"------2"-1"----|
|-0"----------1"----------4"---------4"-|


 Riff 4
|------------------------------|
|------------------------------|
|------------------------------|
|------------------------------|
|-2"--5"-7"-5"--6"-----8"--6"--| < guitar line
|------------------------------|
|
|-2"------------6"-------------| < bass line



 Little solo over riff 4
|---------------------------------------------------------|
|---------------10-11-10--------------------10-11-10------|
|------6-7-8~------------10-8------6-7---------------10-8-|
|-9~--------------------------9~-------8~-----------------|
|---------------------------------------------------------|
|---------------------------------------------------------|



 Riff 5 - KB=Keyboard Notes
|--------------------------------------------------------|
|--------------------------------------------------------|
|-----------------------------KB------KB------KB------KB-|
|-2"--------------------------32------53------75------97-|
|-------1"----3"----2"----000000000000000000000000000000-|
|--------------------------------------------------------|

|-------------------------|
|-------------------------|
|-------------------------|
|-------------------------|
|-------------------------|
|-2~~-2-/4\2/8~~--\2-/4\2-|
      .            .


 Riff 6
|--------------------------------------------------------------|
|--------------------------------------------------------------|
|--------------------------------------------------------------|
|--------------------------------------------------------------|
|--------------------------------------------------------------|
|-000-000-000-000-555-555-333-333-444-444-444-444-111144441111-|


 Another little solo over riff 6
|------------------------------4-|
|-3-5~---3-5-----3-5--3-5----4---|
|--------------------------4-----|
|------------6-------------------| clean
|--------------------------------| guitar
|--------------------------------|

|----------------------------------4-|
|-3-5~---3-5-----3-5--3-5-3tr5---4---|
|------------------------------4-----|
|------------6-----------------------| electric
|------------------------------------| guitar
|------------------------------------|



 Outro
|---------------------------------------|
|---------------------------------------|
|-----------------------3---------------|
|-2----------2----------3---------------|
|-2----------2----------1---------------|
|-0----------0--------------------------|

  Visit MetalTabs.com for more metal tablature

bottom separator

Contact Us | Privacy Policy | Disclaimer | Legal Notice
Copyright © 2001-2014 MetalTabs.com. All Rights Reserved.