top separator

Home

Forum

What's New

Submit a Tab

FAQ

Links

Contact Us

Link to Us

MuSpy.com

MetalTabs.com logo

Bands

0-9

A

B

C

D

E

F

G

H

I

J

K

L

M

N

O

P

Q

R

S

T

U

V

W

X

Y

Z

Search

What

Where
 

Prayer for Cleansing - "Feinbhas a Ghabahail" Guitar Tab

Plain Text Version
More Prayer for Cleansing Tabs

Hits: 4559
Rated: 3.00 out of 5 (2 votes)
Updated: 2005-07-21 16:38:33

 

By:

sendpm.gif

email.gif

Co-authored by:

SicSyco

sendpm.gif

email.gif

Important note
This tab is available online because we obtained explicit permission from Prayer for Cleansing or their label.


#----------------------------------PLEASE NOTE---------------------------------#
#This file is the author's own work and represents their interpretation of the #
#song. You may only use this file for private study, scholarship, or research. #
#Unless specified otherwise, this is NOT an official tab from the band members.#
#------------------------------------------------------------------------------#

  Visit MetalTabs.com for more metal tablature
  
Band:  Prayer for Cleansing
Album: The Rain in Endless Fall
Song:  Feinbhas A Ghabhail

Copyright (c)  Tribunal (1999)
Version 1.0 - 6-26-2005

Transcribed By: SicSyco
Email:          mrblack420@msn.com

Someone had already done this tab, but in Dropped C#,
so here it is in C# Standard. It's not 100%, but sounds ok.
Some parts still aren't right on, but you can change what you
don't like.

Tuning: C# F# B E G# C#
Intro Gtr 1                 Gtr 2
|--------------------------|---------------------|
|--------------------------|---------------------|
|--------------------------|---------------------|
|----------------333222111-|-2--3-2---2---2--3-2-|
|--------------------------|-2--3-2---2---2--3-2-|
|-000111000444333----------|-0--1-0---0---0--1-0-|
			     .  . .   .  .  . .
Verse 1
|---------------------|
|---------------------|
|---------------------|
|-2222-232653-3p2-1h2-|
|-2222-232653---------|
|-0000-010431---------|
  .... ......

Verse 2
|--------------------------|
|--------------------------|
|--------------------------|
|-22-22-22-22-2652-3p2-1h2-|
|-22-22-22-22-2652---------|
|-00-00-00-00-0430---------|
  .. .. .. .. ....

Fill 1        Fill 2    Fill 3
|-------------|--------|----|
|-------------|--------|----|
|-------------|--------|----|
|-222-2-2-2-2-|-3p2-22-|-2~-|
|-222-2-2-2-2-|-3p2-22-|-2~-|
|-000-0-0-0-0-|-1p0-00-|-0~-|
  ... . . . .       ..

Chorus Gtr 1            Gtr 2
|--------------------|--------------------------------|
|--------------------|--------------------------------|
|---9-9---9-9--10----|------------5/4-------5/7-------|
|--9-9-9-9-9-9---10--|-2-222-(2b)-5/4-3-333-5/7-5-4-2-|
|-7-----7----------8-|-2-222------3/2-3-333-3/5-5-4-2-|
|--------------------|-0-000----------1-111-----3-2-0-|
			 ...            ...
verse 3
|-------------------|
|-------------------|
|-------------------|
|-3p2-22-222-2222-6-|
|-3p2-22-222-2222-6-|
|-1p0-00-000-0000-4-|
      .. ... ....

bridge
|---------------------|
|---------------------|
|---------------------|
|-2-3-2-6-5-(3)(2)(1)-|
|-2-3-2-6-5-----------|
|-0-1-0-4-5-----------|
  . . . . .

outro part 1
|-------------------------|
|-------------------------|
|----------------55-44-33-|
|-22-33-22-66-55-33-22-11-|
|-22-33-22-66-55----------|
|-00-11-00-44-33----------|
  .. .. .. .. ..

outro part 2
|--------------------------|
|--------------------------|
|--------------------------|
|-22-33-22-66-55-333222(1)-|
|-22-33-22-66-55-----------|
|-00-11-00-44-33-----------|
  .. .. .. .. ..




	Song Order:
		Intro x4
		Verse 1 x8
		Verse 2 x8
		Fill 1
		Chorus x8
		Fill 1
		Verse 3 x3
		Fill 2
		Pause
		Verse 3 x4
		Fill 1
		Chorus x8
		Fill 1
		Verse 1 x8
		Fill 1 x13 (breakdown)
		Verse 2 x8
		Bridge x8
		Outro Pt1 x4
		Outro Pt2 x4
		Fill 3
		Fill 1
			End

  Visit MetalTabs.com for more metal tablature

bottom separator

Contact Us | Privacy Policy | Disclaimer | Legal Notice
Copyright © 2001-2014 MetalTabs.com. All Rights Reserved.