top separator

Home

Forum

What's New

Submit a Tab

FAQ

Links

Contact Us

Link to Us

MuSpy.com

MetalTabs.com logo

Bands

0-9

A

B

C

D

E

F

G

H

I

J

K

L

M

N

O

P

Q

R

S

T

U

V

W

X

Y

Z

Search

What

Where
 

Bolt Thrower - "Laid to waste" Guitar Tab

Plain Text Version
More Bolt Thrower Tabs

Hits: 3799
Updated: 2004-08-16 17:32:51

 

By:

johnnyturbo3

sendpm.gif

email.gif

Important note
This tab is available online because we obtained explicit permission from Bolt Thrower or their label.


#----------------------------------PLEASE NOTE---------------------------------#
#This file is the author's own work and represents their interpretation of the #
#song. You may only use this file for private study, scholarship, or research. #
#Unless specified otherwise, this is NOT an official tab from the band members.#
#------------------------------------------------------------------------------#

  Visit MetalTabs.com for more metal tablature
  
Bolt Thrower
"Laid To Waste"

Album:Mercenary (Metal Blade Records 1998)

Version: 1.0

Transcribed by: Nathan Flynn (johnnyturbo3uk@yahoo.co.uk)

Tuning (low to high): C# F# B E G# C#

1.5 Steps Down

Riff A (Intro)
C#]-----------------------------]
G#]-----------------------------]
E ]-----------------------------]
B ]---------------------5---3-5-]
F#]---------------------3---1-3-]
C#]-0-2-2--0-2-3-0--2-0---0-----]

Riff B (0:35)
C#]-------------------------------------]
G#]-------------------------------------]
E ]-------------------------------------]
B ]-----------------------------5---3-5-]
F#]-----------------------------3---1-3-]
C#]-022222222022222222022222222---0-----]

Riff C (0:46)
C#]-------------------------]
G#]-------------------------]
E ]-------------------------]
B ]-12-12-12-10-9-7-6-------]
F#]-------------------7-5-7-]
C#]-------------------------]

Riff D (1:21)
C#]-------------------------------------------------]
G#]-------------------------------------------------]
E ]-------------------------------------------------]
B ]-------------------------------------------------]
F#]-------------------------------------------------]
C#]333333333311441111333300001133000011440011330000-]

Riff E (2:19)
C#]---------------------------------------------------------]
G#]---------------------------------------------------------]
E ]---------------------------------------------------------]
B ]----5-5-3-2---------------------5-5-3-2------------------]
F#]-2-----------2--8-8-8-7-5-5--2-----------2--5-5-5-7-5-8*-]
C#]-0-----------0---------------0-----------0---------------]
* Last time 7

Riff F (2:41)
C#]-------------------------------------]
G#]-------------------------------------]
E ]-----------------------9-10-9-10-----]
B ]------------*9-7-9-7-9---------------]
F#]-------------------------------------]
C#]000000000000222233333333555566666666-]
* Guitar 2 plays the Higher part

Riff G (3:14)
C#]--------------------------------------------]
G#]--------------------------------------------]
E ]--------------------------------------------]
B ]--------------------------------------------]
F#]-2-2-3-2-4-2-5-----5--2-2-3-2-4-2-5---------]
C#]-0-0-1-0-2-0-3-0-0-3--0-0-1-0-2-0-3-0-0-8p6-]


Im sure we all know how the song goes so listen for the rhythm
and the palm mutes etc etc...

Any corrections, etc, are welcome.

Credit must be be given to jt83@msn.com who wrote the
orginal tab in 2002, but got the tuning wrong. This tab was
written by ear by Nathan Flynn (johnnyturbo3uk@yahoo.co.uk)
It is not a copy or a rip off.

  Visit MetalTabs.com for more metal tablature

bottom separator

Contact Us | Privacy Policy | Disclaimer | Legal Notice
Copyright © 2001-2014 MetalTabs.com. All Rights Reserved.