top separator

Home

Forum

What's New

Submit a Tab

FAQ

Links

Contact Us

Link to Us

MetalTabs.com logo

Bands

0-9

A

B

C

D

E

F

G

H

I

J

K

L

M

N

O

P

Q

R

S

T

U

V

W

X

Y

Z

Search

What

Where
 

Bolt Thrower - "The Shreds Of Sanity" Guitar Tab

Plain Text Version
More Bolt Thrower Tabs

Hits: 4592
Rated: 4.00 out of 5 (1 vote)
Updated: 2004-08-16 17:31:57

 

By:

johnnyturbo3

sendpm.gif

email.gif

Important note
This tab is available online because we obtained explicit permission from Bolt Thrower or their label.


#----------------------------------PLEASE NOTE---------------------------------#
#This file is the author's own work and represents their interpretation of the #
#song. You may only use this file for private study, scholarship, or research. #
#Unless specified otherwise, this is NOT an official tab from the band members.#
#------------------------------------------------------------------------------#

  Visit MetalTabs.com for more metal tablature
  
Bolt Thrower
"The Shreds of Sanity"

Warmaster (Earache 1992)

Version: 1.0

Transcribed by: Nathan Flynn (johnnyturbo3uk@yahoo.co.uk)

Tuning (low to high): C# F# B E G# C#

1.5 Steps Down

Riff A (Intro)
C#]--------------------]
G#]--------------------]
E ]--------------------]
B ]--------------------]
F#]-2----3-6--3-5--3--2]
C#]-0----1-4--1-3--1--0]

Riff B (0:38)
C#]----------------------]
G#]----------------------]
E ]----------------------]
B ]----------------------]
F#]----------------------]
C#]-000010004444133331111]

Riff C (1:17)
C#]------------------------------]
G#]------------------------------]
E ]------------------------------]
B ]------------------------------]
F#]-----6s5----6s5----6s5-6s5-6s5]
C#]-00004s300004s300004s3-4s3-4s3]

Riff D (1:27)
C#]----------------------------------------------]
G#]----------------------------------------------]
E ]----------------------------------------------]
B ]----------------------------------------------]
F#]-6-5-3-6-5-3-6-5-2-------------------3-6-5--2-]
C#]-4-3-1-4-3-1-4-3-0-0-0-0-0-0-0-0-0-0-1-4-3--0-]

Riff E (1:56)
C#]--------------------------------------------]
G#]--------------------------------------------]
E ]--------------------------------------------]
B ]--------------------------------------------]
F#]--------------------------------------------]
C#]-000000000114433333000000004433114433114433-]

Riff F (2:08)
C#]--------------------------------------------------]
G#]--------------------------------------------------]
E ]--------------------------------------------------]
B ]----------------------6---------------------------]
F#]-2--3-6---5--2--3-6---4--2--3-6---5--2--3-6---5-3-]
C#]-0--1-4-0-3--0--1-4-0----0--1-4-0-3--0--1-4-0-3-1-]

Riff G (3:00)
C#]-----------------------------------------]
G#]-----------------------------------------]
E ]-----------------------------------------]
B ]-----------------------------------------]
F#]---------6---5-----------------5-6---6-5-]
C#]-0-0-0-0-4-0-3---------0-0-0-0-3-4-0-4-3-]

And first part of Riff D to finsh


Im sure we all know how the song goes so listen for the rhythm
and the palm mutes etc etc...

Any corrections, etc, are welcome.

  Visit MetalTabs.com for more metal tablature

bottom separator

Contact Us | Privacy Policy | Disclaimer | Legal Notice
Copyright © 2001-2014 MetalTabs.com. All Rights Reserved.