top separator

Home

Forum

What's New

Submit a Tab

FAQ

Links

Contact Us

Link to Us

MetalTabs.com logo

Bands

0-9

A

B

C

D

E

F

G

H

I

J

K

L

M

N

O

P

Q

R

S

T

U

V

W

X

Y

Z

Search

What

Where
 

Cephalic Carnage - "Occular Penile Recepticle" Guitar Tab

Plain Text Version
More Cephalic Carnage Tabs

Hits: 4171
Rated: 5.00 out of 5 (1 vote)
Updated: 2004-08-13 05:52:42

 

By:

Father Death

sendpm.gif

email.gif

Important note
This tab is available online because we obtained explicit permission from Cephalic Carnage or their label.


#----------------------------------PLEASE NOTE---------------------------------#
#This file is the author's own work and represents their interpretation of the #
#song. You may only use this file for private study, scholarship, or research. #
#Unless specified otherwise, this is NOT an official tab from the band members.#
#------------------------------------------------------------------------------#

  Visit MetalTabs.com for more metal tablature
  
Band:        CEPHALIC CARNAGE
Album:        Perversion... And The Guilt After
Song:        Occular Penile Recepticle

Transcribed by:        Chris Humeniuk
Email:        father_death_666@hotmail.com

Tuning: 2.5 steps down (B)

Keys:
 / \ - slide
 ___ - palm mute
  "  - tremelo
  p  - pull off


INTRO:

|------------------|-----|-----------------|
|------------------|-----|-----------------|
|------------------|-----|-----------------|
|-3/5--4--5/7--3/5-|-3/5-|-6-5---5-4---4-3-|
|-3/5--4--5/7--3/5-|-3/5-|-4-5---3-4---2-3-|
|-1/3--2--3/5--1/3-|-1/3-|---3-0---2-0---1-|
                               _     _


RIFF Aa:

|-----------------------------------------------------------------|
|-----------------------------------------------------------------|
|-----------------------------------------------------------------|
|-3/5-----4---5/7-3/5-----4---5/7-3/5-----4---5/7-6-5---5-4---4-3-|
|-3/5-----4---5/7-3/5-----4---5/7-3/5-----4---5/7-4-5---3-4---2-3-|
|-1/3-0-0-2-0-3/5-1/3-0-0-2-0-3/5-1/3-0-0-2-0-3/5---3-0---2-0---1-| 3x
      ___   _         ___   _         ___   _         _     _

|-----------------------------------------------------------------|
|-----------------------------------------------------------------|
|-----------------------------------------------------------------|
|-3/5-----4---5/7-3/5-----4---5/7-3/5-----4---5/7-6-5---5-4---4-3-|
|-3/5-----4---5/7-3/5-----4---5/7-3/5-----4---5/7-4-5---3-4---2-3-|
|-1/3-0-0-2-0-3/5-1/3-0-0-2-0-3/5-1/3-0-0-2-0-3/5---3-----2-----1-|
      ___   _         ___   _         ___   _


RIFF Ba:

|--------------------------------------------------------------|
|--------------------------------------------------------------|
|-----------------------8"-9"-11"-9"-----------------8"--------|
|-----------------------8"-9"-11"-9"-----------------8"--------|
|-4-----4-3-----4-3-----6"-7"--9"-7"-4-3-----4-3-----6"--------|
|---3-3-----4-5-----4-3------------------4-5-----4-3-----------|
      _     ___     ___                  ___     ___

|----------------------------------------------------------|
|----------------------------------------------------------|
|-----------------8"-9"-11"-9"-----------------------------|
|-----------------8"-9"-11"-9"-------------------------3/5-|
|-4-3-----4-3-----6"-7"--9"-7"-4-----4-3-----4-3-----4-3/5-|
|-----4-5-----4-3----------------3-3-----4-5-----4-3---1/3-|
      ___     ___                  _     ___     ___


RIFF Ab:

|-----------------------------------------------------------------|
|-----------------------------------------------------------------|
|-----------------------------------------------------------------|
|-3/5-----4---5/7-3/5-----4---5/7-3/5-----4---5/7-6-5---5-4---4-3-|
|-3/5-----4---5/7-3/5-----4---5/7-3/5-----4---5/7-4-5---3-4---2-3-|
|-1/3-0-0-2-0-3/5-1/3-0-0-2-0-3/5-1/3-0-0-2-0-3/5---3-0---2-0---1-| 2x
      ___   _         ___   _         ___   _         _     _

|-----------------------------------------------------------------|
|-----------------------------------------------------------------|
|-----------------------------------------------------------------|
|-3/5-----4---5/7-3/5-----4---5/7-3/5-----4---5/7-6-5---5-4---4-3-|
|-3/5-----4---5/7-3/5-----4---5/7-3/5-----4---5/7-4-5---3-4---2-3-|
|-1/3-0-0-2-0-3/5-1/3-0-0-2-0-3/5-1/3-0-0-2-0-3/5---3-----2-----1-|
      ___   _         ___   _         ___   _


RIFF Bb:

|--------------------------------------------------------------|
|--------------------------------------------------------------|
|-----------------------8"-9"-11"-9"-----------------8"--------|
|-----------------------8"-9"-11"-9"-----------------8"--------|
|-4-----4-3-----4-3-----6"-7"--9"-7"-4-3-----4-3-----6"--------|
|---3-3-----4-5-----4-3------------------4-5-----4-3-----------|
      _     ___     ___                  ___     ___

|------------------------------------------------------------------|
|------------------------------------------------------------------|
|-----------------8"-9"-11"-9"-------------------------------------|
|-----------------8"-9"-11"-9"-------------------------3/5--4--5/7-|
|-4-3-----4-3-----6"-7"--9"-7"-4-----4-3-----4-3-------3/5--4--5/7-|
|-----4-5-----4-3----------------3-3-----4-5-----4-3-2-1/3--2--3/5-|
      ___     ___                  _     ___     _____


RIFF C:

|----------------------------------------------------------------------|
|----------------------------------------------------------------------|
|----------------------------------------------------------------------|
|-3/5---------------------------3---3/5--------------------------------|
|-3/5-2-2-2-2--2-2-2-2--2-2-2-2-3---3/5-2-2-2-2--2-2-2-2--2-2-2-2--2-2-|
|-1/3-0-0-0-0--0-0-0-0--0-0-0-0-1-0-1/3-0-0-0-0--0-0-0-0--0-0-0-0--0-0-| 6x
      _________________________   _     ______________________________


Note - For the outro I can't really pick up on the harmony too well...both
       guitars have a different sound to them as always, and it sounds like
       they might be playing one or two frets off from each other most of the
       time. The guitar parts don't really overlap too often therefor i'm just
       putting it down as one guitar, instead of two guitars.

OUTRO:

|-------------------------------------------------------12-9--------------
|------------------------------------------------------------12-11-9------
|-------13p12-------13p12----------13p12-------13p12-----------------12---
|-12-14-------12-14----------12-14-------12-14----------------------------
|-------------------------------------------------------------------------
|-------------------------------------------------------------------------
  _____       _____          _____       _____

 -------------------------12-9---------------------------------------
 ------------------------------12-11-9-------------------------------
 -------13p12-------13p12--------------14-14-------13-13-------13\12-
 -12-14-------12-14--------------------------12-12-------12-12-------
 --------------------------------------------------------------------
 --------------------------------------------------------------------
  _____       _____                    _______________________

 -12-9------------------------------------12-9------------12-9------------
 ------12-11-9---------------------------------12-11-9---------12-11-9----
 --------------12-------13p12-------13p12--------------12--------------12-
 -----------------12-14-------12-14---------------------------------------
 -------------------------------------------------------------------------
 -------------------------------------------------------------------------
                  _____       _____

 -------------------------12-9------------------------------------
 ------------------------------12-11-9----------------------------
 -------13-13-------13-13--------------12-------13p12-------13p12-
 -12-14-------12-14-----------------------12-14-------12-14-------
 -----------------------------------------------------------------
 -----------------------------------------------------------------
  _______________________                 _____       _____

 -12-9------------------------------------12-9------------11-8------------
 ------12-11-9---------------------------------12-11-9---------11-10-8----
 --------------12-------13p12-------13p12--------------11--------------10-
 -----------------12-14-------12-14---------------------------------------
 -------------------------------------------------------------------------
 -------------------------------------------------------------------------
                  _____       _____

 -13-10----------------------------------------------------|
 -------13-12-10-------13-12-10-------15-14-12-------------|
 ----------------12-------------12-------------15-14-12----|
 -------------------------------------------------------14-|
 ----------------------------------------------------------|
 ----------------------------------------------------------|

...zip

  Visit MetalTabs.com for more metal tablature

bottom separator

Contact Us | Privacy Policy | Disclaimer | Legal Notice
Copyright © 2001-2014 MetalTabs.com. All Rights Reserved.