top separator

Home

Forum

What's New

Submit a Tab

FAQ

Links

Contact Us

Link to Us

MuSpy.com

MetalTabs.com logo

Bands

0-9

A

B

C

D

E

F

G

H

I

J

K

L

M

N

O

P

Q

R

S

T

U

V

W

X

Y

Z

Search

What

Where
 

Mithotyn - "Shadows of the Past" Guitar Tab

Plain Text Version
More Mithotyn Tabs

Hits: 2583
Rated: 5.00 out of 5 (1 vote)
Updated: 2004-08-11 10:25:59

 

By:

Daniil

sendpm.gif

email.gif

Important note
This tab is available online because we obtained explicit permission from Mithotyn or their label.


#----------------------------------PLEASE NOTE---------------------------------#
#This file is the author's own work and represents their interpretation of the #
#song. You may only use this file for private study, scholarship, or research. #
#Unless specified otherwise, this is NOT an official tab from the band members.#
#------------------------------------------------------------------------------#

  Visit MetalTabs.com for more metal tablature
  
MITHOTYN-Shadows Of The Past
In The Sign Of The Ravens-1997
Transcribed by Daniil Laletin
"INVASION RECORDS"
e-mail: dlaletin@mail.ru
version 1.0 July 2004

All corrections are welcome.

 " - tremolo
 / - slide down
 \ - slide up
 . - palm mute
 ~ - long sound
 x - rest
 p - pull off
 h - hammer on
 tr - trill
 () - ghost note, sustained note

================================

 Intro
|-------------------------------------------------------------|
|-------------------------------------------------------------|
|-------------------------7-9---------------------------7-9---|
|-7-6-7-9-10-9-7-6-7-9-10-------7-6-7-9-10-9-7-6-7-9-10-------|KB
|-------------------------------------------------------------|
|-------------------------------------------------------------|
|
|-------------------------------------------------------------|
|-------------------------------------------------------------|
|-------------------------------------------------------------|
|-----------------------------2-----------------------------2-|gtr 1
|-----------------------------0-----------------------------0-|
|-------------------------------------------------------------|

|--------------------------------------------------------------|
|--------------------------------------------------------------|
|-9-7----------------------------------------------------------|
|-----10-9-10-9-7-6-7-9-10-9-6---7-6-7-9-10-9-7-6-7-9-10-9-7---|KB
|--------------------------------------------------------------|
|--------------------------------------------------------------|
|
|--------------------------------------------------------------|
|--------------------------------------------------------------|
|--------------------------------------------------------------|
|------------------------------------------------------------2-|gtr 1
|------------------------------2-----------------------------0-|
|------------------------------0-------------------------------|



 Riff 1
|-----------------------------------------------------------|
|-----------------------------------------------------------|
|-------------------------7-9---------------------------7-9-|
|-7-6-7-9-10-9-7-6-7-9-10-------7-6-7-9-10-9-7-6-7-9-10-----|gtr 1
|-----------------------------------------------------------|
|-----------------------------------------------------------|
|
|-----------------------------------------------------------|
|-----------------------------------------------------------|
|-----------------------------------------------------------|
|-2"---------------2"-----------2"---------------2"---------|gtr 2
|-0"-------2"------0"-----------0"-------2"------0"---------|
|----------0"----------------------------0"-----------------|

|------------------------------------------------------------|
|------------------------------------------------------------|
|-9-7--------------------------------------------------------|
|-----10-9-10-9-7-6-7-9-10-9-6---7-6-7-9-10-9-7-6-7-9-10-9-7-|gtr 1
|------------------------------------------------------------|
|------------------------------------------------------------|
|
|------------------------------------------------------------|
|------------------------------------------------------------|
|------------------------------------------------------------|
|-5"-----------------------------2"---------------2"---------|gtr 2
|-3"--------5"------7"-------2"--0"-------2"------0"---------|
|-----------3"------5"-------0"-----------0"-----------------|



 Riff 2
|---------------------------------------|
|---------------------------------------|
|-5~-4-2-4-5-7~-5-4-5-7-5---5-7---7-9~--|
|-------------------------2-----5-------|gtr 1
|---------------------------------------|
|---------------------------------------|
|
|---------------------------------------|
|---------------------------------------|
|---------------------------------------|
|-----------------------------------5---|gtr 2
|-7----------5----------7-----5-----3---|
|-5----------3----------5-----3---------|

|----------------------------------------------|
|----------------------------------------------|
|-9h10p9-10~-9-7-9-10-9~-7h9p7-5~-----------/4-|
|-----------------------------------/3--/5-----|gtr 1
|----------------------------------------------|
|----------------------------------------------|
|
|----------------------------------------------|
|----------------------------------------------|
|----------------------------------------------|
|---------7-----------5----------------------4-|gtr 2
|---------5-----------3--------------3---5---2-|
|------------------------------------1---3-----|



 Riff 3
|-----------------------------------------------------------------|
|-----------------------------------------------------------------|
|-----------------------------------------------------------------|
|-----------5"------------------5"------------------5"--------4"--|gtr 1
|--7"--3"---3"---5"----7"--3"---3"---5"----7"--3"---3"---5"---2"--|
|--5"--1"--------3"----5"--1"--------3"----5"--1"--------3"-------|
|
|-----------------------------------------------------------------|
|-----------------------------------------------------------------|
|-----------------------------------------------------------------|
|-10"--7"--10"7"10"9"-10"--7"--10"7"10"9"-10"--7"--10"7"10"12"9"--|gtr 2
|-----------------------------------------------------------------|
|-----------------------------------------------------------------|

|-----------------------------------------------------------------------|
|-----------------------------------------------------------------------|
|------------------------------------9----------------------------------|
|-------5"----------------------5----7-------------------------------5--|gtr 1
|-------3"--------------3------------7-------------------3--------------|
|-----------------------1--1-1--3-33---------------------1----1--1---3--|
|                          . .    ..                          .  .
|-----------------------------------------------------------------------|
|-----------------------------------------------------------------------|
|----------------------/10-7~--/12-7-9~--9h10p9~-/14-12-10~-10\9-9\7-7~-|
|-10"12"14"-12"-10"-9"--------------------------------------------------|gtr 2
|-----------------------------------------------------------------------|
|-----------------------------------------------------------------------|

|----------------------------------------|
|----------------------------------------|
|----------9-----------------------------|
|----------7------------------7-9------7-|gtr 1
|----------7------------------5-7--5-7-7-|
|----3-3---------------------------5-7-5-|
|    . .
|----------------------------------------|
|----------------------------------------|
|-7/9-9h10p9~--9h10p9~-12-10--7-5--------|
|--------------------------------------7-|gtr 2
|----------------------------------5-7-7-|
|----------------------------------5-7-5-|



 Riff 4
|---------------------------------------------------------------------------|
|---------------------------------------------------------------------------|
|---------------------------------------------------------------------------|
|---------------------------------------------------------------------------|
|-0"-7"-5"-7"-2"---3"-5"-0"-7"-5"-7"-5"---3"-2"-8"---7"---8"-5"-7"-8"-10"---|
|---------------------------------------------------------------------------|
|gtr 1
|---------------------------------------------------------------------------|
|---------------------------------------------------------------------------|
|---------------------------------------------------------------------------|
|---------------------------------------------------------------------------|
|-0"-7"-5"-7"-2"---3"-5"-0"-7"-5"-7"-5"---3"-2"-8"---7"---8"-5"-7"-8"-10"---|
|---------------------------------------------------------------------------|
 gtr 2
|------------------------------------------------------------------|
|------------------------------------------------------------------|
|------------------------------------------------------------------|
|------------------------------------------------------------------|gtr 1
|-12"-10"-8h10p8-7"-8"---7"---8"-5"-7"-8"-10"---12"-10"-8h10p8-7"--|
|------------------------------------------------------------------|
|
|------------------------------------------------------------------|
|------------------------------------------------------------------|
|------------------------------------------------------------------|
|------------------------------------------------------------------|gtr 2
|-12"-10"-8h10p8-7"-8"---7"---8"-5"-7"-8"-10"---12"-10"-8h10p8-7"--|
|------------------------------------------------------------------|




 Riff 5
|-----------------------------------------------------|
|-----------------------------------------------------|
|-----------------------------------------------------|
|-2-4-2-5---5-7-5-9---9-4-5-4-------------------------|gtr 1
|-0-2-0-3---3-5-3-7---7-2-3-2-------------------------|
|---2---3---3-----7---7-------0-0-0-4-4-4-5-5-5-7-7-7-|
|                             . . . . . . . . . . . .
|-----------------------------------------------------|
|-----------------------------------------------------|
|-----------------------------------------------------|
|-2-4-2-5---5-7-5-9---9-4-5-4-------------------------|gtr 2
|-0-2-0-3---3-5-3-7---7-2-3-2-------------------------|
|---2---3---3-----7---7-------0-0-0-4-4-4-5-5-5-7-7-7-|
                              . . . . . . . . . . . .






 Solo riff 1                                x 2
|----------------------------------------------|
|-13~--13-12-10~--12h13-12~-13-12-10h12p10-8~--|
|----------------------------------------------|
|----------------------------------------------|gtr 1
|----------------------------------------------|
|----------------------------------------------|
|
|----------------------------------------------|
|----------------------------------------------|
|----------------------------------------------|
|----------------------------------------------|gtr 2
|--7---------------------5---------------------|
|--5---------------------3---------------------|

|-----------------------------------|
|------/12-13-10-8-10-12-13-12-10-8-|
|-/9~-------------------------------|
|-----------------------------------|gtr 1
|-----------------------------------|
|-----------------------------------|
|
|-----------------------------------|
|-----------------------------------|
|-----------------------------------|
|-----------------------------------|gtr 2
|--2-----------3----------5---------|
|--0-----------1----------3---------|



 Solo riff 2
|-----------------------------------------------------------|
|-10~--8-10-12-10-12-13-12-10-8-----------------------------|
|-------------------------------9~--9-10-9-7-9~---9/10-10~--|
|-----------------------------------------------------------|gtr 1
|-----------------------------------------------------------|
|-----------------------------------------------------------|
|
|-----------------------------------------------------------|
|-----------------------------------------------------------|
|-----------------------------------------------------------|
|-----------------------------------------------------------|gtr 2
|--7----------------------------5-----------------------2---|
|--5----------------------------3-----------------------0---|

|---------------------------------------------------------------------|
|---------------------------------------------------------------------|
|-/12-10-9~--10-9-7-9~------5-7-5-4-5~-----4-5-4-2-4~-----4-5-4-2-4~--|
|---------------------------------------------------------------------|gtr 1
|---------------------------------------------------------------------|
|---------------------------------------------------------------------|
|
|---------------------------------------------------------------------|
|---------------------------------------------------------------------|
|---------------------------------------------------------------------|
|---------------------------------------------------------------------|gtr 2
|--------3---3----5---5--7--------------5--------------2--------------|
|--------1-111-11-3-333--5--------------3--------------0--------------|

|------------------------|
|----6-8-10~---8--6h8p6--|
|-/9---------------------|
|------------------------|gtr 1
|------------------------|
|------------------------|
|
|------------------------|
|------------------------|
|------------------------|
|------------------------|gtr 2
|---------3---3----5---5-|
|---------1-111-11-3-333-|



 Riff 6
|--------------------------------------------------|
|--------------------------------------------------|
|-55554422445577775544557755--5577--77999999999999-|
|-..........................22....55..............-|gtr 1
|---------------------------..----..---------------|
|--------------------------------------------------|
|
|--------------------------------------------------|
|--------------------------------------------------|
|--------------------------------------------------|
|-------------------------------------555555555555-|gtr 2
|-777777777777555555555555777777555555333333333333-|
|-555555555555333333333333555555333333............-|
  ....................................
                                              ending of riff 6
|---------------------------------------|    |------|
|---------------------------------------|    |------|
|-10~-9-7-9-10-9~-7h9p7-5~-----------/4-|    |-2~---|
|----------------------------/3--/5-----|    |------|gtr 1
|---------------------------------------|    |------|
|---------------------------------------|    |------|
|                                            |
|---------------------------------------|    |------|
|---------------------------------------|    |------|
|---------------------------------------|    |------|
|--7-----------5----------------------4-|    |-2~---|gtr 2
|--5-----------3--------------3---5---2-|    |-0~---|
|-----------------------------1---3-----|    |------|



 Fill 1
|---------------------------------------------------------------------------|
|---------------------------------------------------------------------------|
|---------------------------------------------------------------------------|
|---------------------------------------------------------------------------|
|-----------------------------------------------------------------------\---|
|-----------------------------------------------------------------------\---|
|gtr 1
|---------------------------------------------------------------------------|
|---------------------------------------------------------------------------|
|---------------------------------------------------------------------------|
|---------------------------------------------------------------------------|
|-10"--7"---10"7"10"-9"--10"--7"--10"7"10"-9"--10"--7"--10"7"10"12"-9"--9"--|
|-12"--8"---12"8"12"10"--12"--8"--12"8"12"10"--12"--8"--12"8"12"14"10"--7"--|
 gtr 2


 Ending riff
|----------------------------------------------------|
|----------------------------------------------------|
|----------------------------------------------------|
|----------------------------------------------------|gtr 1
|-------------------------2-----6-----7-----9-----7--|
|-0-0-0-4-4-4-5-5-5-7-7-7-0-----4-----5-----7-----5--|
| . . . . . . . . . . . .
|----------------------------------------------------|
|----------------------------------------------------|
|----------------------------------------------------|
|-------------------------------6~----7~----9~----7~-|gtr 2
|-------2-2-2-3-3-3-5-5-5-7~-------------------------|
|-3-3-3-.-.-.-.-.-.-.-.-.----------------------------|
  . . .

  Visit MetalTabs.com for more metal tablature

bottom separator

Contact Us | Privacy Policy | Disclaimer | Legal Notice
Copyright © 2001-2014 MetalTabs.com. All Rights Reserved.