top separator

Home

Forum

What's New

Submit a Tab

FAQ

Links

Contact Us

Link to Us

MetalTabs.com logo

Bands

0-9

A

B

C

D

E

F

G

H

I

J

K

L

M

N

O

P

Q

R

S

T

U

V

W

X

Y

Z

Search

What

Where
 

Mithotyn - "Lost In The Mist" Guitar Tab

Plain Text Version
More Mithotyn Tabs

Hits: 3615
Rated: 5.00 out of 5 (2 votes)
Updated: 2004-08-11 10:25:39

 

By:

Daniil

sendpm.gif

email.gif

Important note
This tab is available online because we obtained explicit permission from Mithotyn or their label.


#----------------------------------PLEASE NOTE---------------------------------#
#This file is the author's own work and represents their interpretation of the #
#song. You may only use this file for private study, scholarship, or research. #
#Unless specified otherwise, this is NOT an official tab from the band members.#
#------------------------------------------------------------------------------#

  Visit MetalTabs.com for more metal tablature
  
MITHOTYN-Lost In The Mist
In The Sign Of The Ravens-1997
Transcribed by Daniil Laletin
"INVASION RECORDS"
e-mail: dlaletin@mail.ru
version 1.0 July 2004

All corrections are welcome.

 " - tremolo
 / - slide down
 \ - slide up
 . - palm mute
 ~ - long sound
 x - rest
 p - pull off
 h - hammer on
 tr - trill
 () - ghost note, sustained note

================================

FL = Flute
KB = Keyboard
GT = Guitar

================================

 Intro
|-0-|
|-0-|
|-0-| Strum this chord,
|-2-| listen to CD for rythm.
|-2-|
|-0-|



 PART 1: ACOUSTIC PART

 Riff 1
|-7~-8-7--5---5---------------------5------7~-8-7--5---5------|
|-----------8---7-7~-5-7-8-7-5~-7-8---7-7~-----------8---7-7~-|
|-------------------------------------------------------------|
|-------------------------------------------------------------|FL
|-------------------------------------------------------------|
|-------------------------------------------------------------|
|
|-0--00--00---222-2-----------------222-2--0--00--00---222-2--|
|-0--00--00---333-3----1--11--11----333-3--0--00--00---333-3--|
|-0--00--00---222-2----0--00--00----222-2--0--00--00---222-2--|
|-2--22--22---000-0----2--22--22----000-0--2--22--22----------|GT
|-2--22--22------------3--33--33-----------2--22--22----------|
|-0--00--00--------------------------------0--00--00----------|

|-------------------------------------------------5-7-8-7-5-7-8-7-|
|-5-7-8-7-5-7-8-7-3-5-7-5-3-5-7-5-5-7-8-7-5-7-8-7-----------------|
|-----------------------------------------------------------------|
|-----------------------------------------------------------------|FL
|-----------------------------------------------------------------|
|-----------------------------------------------------------------|
|
|-------------------------------------------------2---22---22-----|
|-1---11---11---------------------1---11---11-----3---33---33-----|
|-0---00---00-----4---44---44-----0---00---00-----2---22---22-----|
|-2---22---22-----4---44---44-----2---22---22-----0---00---00-----|GT
|-3---33---33-----2---22---22-----3---33---33---------------------|
|-----------------------------------------------------------------|



 Riff 2a
|-------------------------------------------------------------------|
|-8~-8~-8p7-5-5~-8~-8~-8p7-5-5~-10~-10~-10p8-7-7~-10~-10~-10p8-8-8~-|
|-------------------------------------------------------------------|
|-------------------------------------------------------------------|FL
|-------------------------------------------------------------------|
|-------------------------------------------------------------------|
|
|-------------------------------------------------------------------|
|-------------------------------------------------------------------|
|-------------------------------------------------------------------|
|-5--5-5-4--2-2--5--5-5-4--2-2---7---7--7-5--4-4---7---7--7-5--4-4--|GT
|-2--2-2-2--2-2--2--2-2-2--2-2---5---5--5-5--5-5---5---5--5-5--5-5--|
|-0--0-0-0--0-0--0--0-0-0--0-0---5---5--5-5--5-5---5---5--5-5--5-5--|



 Riff 2b
|---------------------------------------------------------------------|
|-8~-8~-8p7-5-5~-8~-8~-8p7-5-5~-10~-10~-10p8-7-7~-10~-10~-10p8-7-8-10-|
|---------------------------------------------------------------------|
|---------------------------------------------------------------------|FL
|---------------------------------------------------------------------|
|---------------------------------------------------------------------|
|
|---------------------------------------------------------------------|
|---------------------------------------------------------------------|
|---------------------------------------------------------------------|
|-5--5-5-4--2-2--5--5-5-4--2-2---7---7--7-5--4-4---7---7--7-5--5-5--7-|GT
|-2--2-2-2--2-2--2--2-2-2--2-2---5---5--5-5--5-5---5---5--5-5--5-5--5-|
|-0--0-0-0--0-0--0--0-0-0--0-0---5---5--5-5--5-5---5---5--5-5--5-5--5-|




 PART 2: HEAVY PART
 There is acoustic guitar played beneath electric.

 Riff 1
|-7~-8-7--5---5---------------------5------7~-8-7--5---5------|
|-----------8---7-7~-5-7-8-7-5~-7-8---7-7~-----------8---7-7~-|
|-------------------------------------------------------------|
|-------------------------------------------------------------|FL
|-------------------------------------------------------------|
|-------------------------------------------------------------|
|
|-------------------------------------------------------------|
|-------------------------------------------------------------|
|-------------------------------------------------------------|
|-9--9-9-9-9--7-7-7--5--5-5--5-5----7-7-7--9--9-9-9-9--7-7-7--|GT
|-7--7-7-7-7--5-5-5--3--3-3--3-3----5-5-5--7--7-7-7-7--5-5-5--|
|-7--7-7-7-7--5-5-5--3--3-3--3-3----5-5-5--7--7-7-7-7--5-5-5--|
              . . .                 . . .              . . .
|-------------------------------------------------5-7-8-7-5-7-8-7-|
|-5-7-8-7-5-7-8-7-3-5-7-5-3-5-7-5-5-7-8-7-5-7-8-7-----------------|
|-----------------------------------------------------------------|
|-----------------------------------------------------------------|FL
|-----------------------------------------------------------------|
|-----------------------------------------------------------------|
|
|-----------------------------------------------------------------|
|-----------------------------------------------------------------|
|-----------------------------------------------------------------|
|-5-5-5-5-5-5-5-5-4-4-4-4-4-4-4-4-5-5-5-5-5-5-5-5-7-7-7-7-7-7-7-7-|GT
|-3-3-3-3-3-3-3-3-2-2-2-2-2-2-2-2-3-3-3-3-3-3-3-3-5-5-5-5-5-5-5-5-|
|-3-3-3-3-3-3-3-3-2-2-2-2-2-2-2-2-3-3-3-3-3-3-3-3-5-5-5-5-5-5-5-5-|
  . . . . . . . . . . . . . . . . . . . . . . . . . . . . . . . .



 Riff 2a
|-------------------------------------------------------------------|
|-8~-8~-8p7-5-5~-8~-8~-8p7-5-5~-10~-10~-10p8-7-7~-10~-10~-10p8-7-7~-|
|-------------------------------------------------------------------|
|-------------------------------------------------------------------|FL
|-------------------------------------------------------------------|
|-------------------------------------------------------------------|
|
|-------------------------------------------------------------------|
|-------------------------------------------------------------------|
|-------------------------------------------------------------------|
|-9-9-9-9-9-9-9-9-9-9-9-9-9-9-9--7-7-7-7-7-7-7-7-7-7-7-7-7-7-7-7-8--|GT
|-7-7-7-7-7-7-7-7-7-7-7-7-7-7-7--5-5-5-5-5-5-5-5-5-5-5-5-5-5-5-5-6--|
|-7-7-7-7-7-7-7-7-7-7-7-7-7-7-7--5-5-5-5-5-5-5-5-5-5-5-5-5-5-5-5-6--|



 Riff 2a
|---------------------------------------------------------------------|
|-8~-8~-8p7-5-5~-8~-8~-8p7-5-5~-10~-10~-10p8-7-7~-10~-10~-10p8-7-8-10-|
|---------------------------------------------------------------------|
|---------------------------------------------------------------------|FL
|---------------------------------------------------------------------|
|---------------------------------------------------------------------|
|
|---------------------------------------------------------------------|
|---------------------------------------------------------------------|
|---------------------------------------------------------------------|
|-9-9-9-9-9-9-9-9-9-9-9-9-9-9-9--7-7-7-7-7-7-7-7-7-7-7-7-7-7-7-7-8----|GT
|-7-7-7-7-7-7-7-7-7-7-7-7-7-7-7--5-5-5-5-5-5-5-5-5-5-5-5-5-5-5-5-6----|
|-7-7-7-7-7-7-7-7-7-7-7-7-7-7-7--5-5-5-5-5-5-5-5-5-5-5-5-5-5-5-5-6----|




 Fill 1
|-------------------7-5-7-5------------------------------|
|-5--7-8--10-1087-5---------8--5--7-8--10-1087-5-4---4-7-|
|--------------------------------------------------4-----|
|--------------------------------------------------------|KB
|--------------------------------------------------------|
|--------------------------------------------------------|
|
|--------------------------------------------------------|
|-12~----------------------------------------------------|
|--------------------------------------------------------|
|--------------------------------------------------------|FL
|--------------------------------------------------------|
|--------------------------------------------------------|
|
|--------------------------------------------------------|
|--------------------------------------------------------|
|--------------------------------------------------------|
|-9~---------------------------9x------------------------|GT
|-7~---------------------------7x------------------------|
|-7~---------------------------7x------------------------|



 Riff 3
|-------------------7-5-7-5------------------------------|
|-5--7-8--10-1087-5---------8--5--7-8--10-1087-5-4---4-7-|
|--------------------------------------------------4-----|
|--------------------------------------------------------|KB
|--------------------------------------------------------|
|--------------------------------------------------------|
|
|--------------------------------------------------------|
|--------------------------------------------------------|
|--------------------------------------------------------|
|-9--7-5---7--7/9--9-9---9-9---9--7-5---7--9---4-4-8---8-|GT
|-7--5-3---5--5/7--7-7---7-7---7--5-3---5--7---2-2-6-9-6-|
|-7----------------7-7---7-7---7-----------7---2-2---7---|
                     .     .                     .




 PART THREE: CHOIR PART

 Riff 1a
|-------------------------------------------------------------------|
|-------------------------------------------------------------------|
|-------------------------------------------------------------------|
|-9-7/9-5-5-5-7-7-7-9-7/9-5-5-5-7-7-7-9-7/9-5-5-5-7-7-7-5---4---2---|GT
|-7-5/7-3-3-3-5-5-5-7-5/7-3-3-3-5-5-5-7-5/7-3-3-3-5-5-5-3---2---0---|
|-------.-.-.-.-.-.-------.-.-.-.-.-.-------.-.-.-.-.-.-------------|
|
|-------------------------------------------------------------------|
|-------------------------------------------------------------------|
|-------------------------------------------------------------------|
|-9-7/9-5-5-5-7-7-7-9-7/9-5-5-5-7-7-7-9-7/9-5-5-5-7-7-7-5---4---2---|GT
|-7-5/7-3-3-3-5-5-5-7-5/7-3-3-3-5-5-5-7-5/7-3-3-3-5-5-5-3---2---0---|
|-------.-.-.-.-.-.-------.-.-.-.-.-.-------.-.-.-.-.-.-------------|



 Riff 1b
|-------------------------------------------------------------------|
|-------------------------------------------------------------------|
|-------------------------------------------------------------------|
|-9-7/9-5-5-5-7-7-7-9-7/9-5-5-5-7-7-7-9-7/9-5-5-5-7-7-7-5---4---2---|GT
|-------------------------------------------------------------------|
|-------------------------------------------------------------------|
|
|-------------------------------------------------------------------|
|-------------------------------------------------------------------|
|-------------------------------------------------------------------|
|-9-7/9-5-5-5-7-7-7-9-7/9-5-5-5-7-7-7-9-7/9-5-5-5-7-7-7-5---4---2---|GT
|-7-5/7-3-3-3-5-5-5-7-5/7-3-3-3-5-5-5-7-5/7-3-3-3-5-5-5-3---2---0---|
|-------.-.-.-.-.-.-------.-.-.-.-.-.-------.-.-.-.-.-.-------------|

  Visit MetalTabs.com for more metal tablature

bottom separator

Contact Us | Privacy Policy | Disclaimer | Legal Notice
Copyright © 2001-2014 MetalTabs.com. All Rights Reserved.