top separator

Home

Forum

What's New

Submit a Tab

FAQ

Links

Contact Us

Link to Us

MuSpy.com

MetalTabs.com logo

Bands

0-9

A

B

C

D

E

F

G

H

I

J

K

L

M

N

O

P

Q

R

S

T

U

V

W

X

Y

Z

Search

What

Where
 

Mithotyn - "Freezing Storms of snow" Guitar Tab

Plain Text Version
More Mithotyn Tabs

Hits: 2361
Rated: 5.00 out of 5 (1 vote)
Updated: 2004-08-11 10:25:34

 

By:

Daniil

sendpm.gif

email.gif

Important note
This tab is available online because we obtained explicit permission from Mithotyn or their label.


#----------------------------------PLEASE NOTE---------------------------------#
#This file is the author's own work and represents their interpretation of the #
#song. You may only use this file for private study, scholarship, or research. #
#Unless specified otherwise, this is NOT an official tab from the band members.#
#------------------------------------------------------------------------------#

  Visit MetalTabs.com for more metal tablature
  
MITHOTYN-Freezing Storms Of Snow
In The Sign Of The Ravens-1997
Transcribed by Daniil Laletin
"INVASION RECORDS"
e-mail: dlaletin@mail.ru
version 1.0 July 2004

All corrections are welcome.

 " - tremolo
 / - slide down
 \ - slide up
 . - palm mute
 ~ - long sound
 x - rest
 p - pull off
 h - hammer on
 tr - trill
 () - ghost note, sustained note

================================

 Bass intro
|---------------------------------------|
|---------------------------------------|
|-0--0-2-3--3-2-0-2--0-7-7-5-3-2-3-3--2-|
|---------------------------------------|



 Riff 1a
|----------------------------------------|
|----------------------------------------|
|----------------------------------------|
|-2--2-4-5--5-4-2-4--2--9-9-7-5-4-5-5--4-|gtr 1
|-0--0-2-3--3-2-0-2--0--7-7-5-3-2-3-3--2-|
|----------------------------------------|
|
|----------------------------------------|
|----------------------------------------|
|----------------------------------------|
|-2--2-4-5--5-4-2-4--2--9-9-7-5-4-5-5--4-|gtr 2
|-0--0-2-3--3-2-0-2--0--7-7-5-3-2-3-3--2-|
|----------------------------------------|



 Riff 1b
|--------------------------------------------------------|
|--------------------------------------------------------|
|--------------------------------------------------------|
|-2"--2"-4"-5"--5"-4"-2"-4"--2"-9"-9"-7"-5"-4"-5"-5"--4"-|gtr 1
|-0"--0"-2"-3"--3"-2"-0"-2"--0"-7"-7"-5"-3"-2"-3"-3"--2"-|
|--------------------------------------------------------|
|
|--------------------------------------------------------|
|--------------------------------------------------------|
|--------------------------------------------------------|
|-2"--2"-4"-5"--5"-4"-2"-4"--2"-9"-9"-7"-5"-4"-5"-5"--4"-|gtr 2
|-0"--0"-2"-3"--3"-2"-0"-2"--0"-7"-7"-5"-3"-2"-3"-3"--2"-|
|--------------------------------------------------------|



 Riff 2a
|---------------------------------------------------------|
|---------------------------------------------------------|
|-7"-9"-10"-9"-7"--9"7"6"---7"-9"-10"-9"-7"--9"7"6"-7"-9"-|
|---------------------------------------------------------|gtr 1
|---------------------------------------------------------|
|---------------------------------------------------------|
|
|---------------------------------------------------------|
|---------------------------------------------------------|
|-7"-9"-10"-9"-7"--9"7"6"---7"-9"-10"-9"-7"--9"7"6"-7"-9"-|
|---------------------------------------------------------|gtr 2
|---------------------------------------------------------|
|---------------------------------------------------------|

|---------------------------------------------|
|---------------10"---------------------------|
|-7"---9"---7"---7"---7"//--\\7"---\6"--------|
|-----------------------------------------7"--|gtr 1
|---------------------------------------------|
|---------------------------------------------|
|
|---------------------------------------------|
|---------------10"---------------------------|
|-7"---9"---7"---7"---7"//--\\7"---\6"--------|
|-----------------------------------------7"--|gtr 2
|---------------------------------------------|
|---------------------------------------------|



 Riff 2b
|-------------------------------------------------------|
|-------------------------------------------------------|
|-2"-4"-5"-4"-2"--4"2"1"---2"-4"-5"-4"-2"--4"2"1"-2"-4"-|
|-------------------------------------------------------|gtr 1
|-------------------------------------------------------|
|-------------------------------------------------------|
|
|-------------------------------------------------------|
|-------------------------------------------------------|
|-2"-4"-5"-4"-2"--4"2"1"---2"-4"-5"-4"-2"--4"2"1"-2"-4"-|
|-------------------------------------------------------|gtr 2
|-------------------------------------------------------|
|-------------------------------------------------------|

|---------------------------------------------|
|----------------5"---------------------------|
|-2"---4"---2"---2"---2"//--\\2"---\1"--------|
|-----------------------------------------2"--|gtr 1
|---------------------------------------------|
|---------------------------------------------|
|
|---------------------------------------------|
|----------------5"---------------------------|
|-2"---4"---2"---2"---2"//--\\2"---\1"--------|
|-----------------------------------------2"--|gtr 2
|---------------------------------------------|
|---------------------------------------------|



 Riff 3
|----------------------------------------------------|
|----------------------------------------------------|
|----------------------------------------------------|
|-2-2-2-/9-5-4-4-5-2-2-2-/9-5-4-5-7-2-2-2-/9-5-4-4-4-|gtr 1
|-0-0-0-/7-3-2-2-3-0-0-0-/7-3-2-3-5-0-0-0-/7-3-2-2-2-|
|----------------------------------------------------|
|
|----------------------------------------------------|
|----------------------------------------------------|
|----------------------------------------------------|
|-2-2-2-/9-5-4-4-5-2-2-2-/9-5-4-5-7-2-2-2-/9-5-4-4-4-|gtr 2
|-0-0-0-/7-3-2-2-3-0-0-0-/7-3-2-3-5-0-0-0-/7-3-2-2-2-|
|----------------------------------------------------|

|-----------------------------|
|-----------------------------|
|-----------------------------|
|-5-----5-----5-7-----7-----7-|gtr 1
|-3-333-3-333-3-5-555-5-555-5-|
|---...---...-----...---...---|
|
|-----------------------------|
|-----------------------------|
|-----------------------------|
|-5-----5-----5-7-----7-----7-|gtr 2
|-3-333-3-333-3-5-555-5-555-5-|
|---...---...-----...---...---|



 Fill 1
|---------------------|
|---------------------|
|-------5"-4"-5"-7"-5-|
|---------------------|gtr 1
|-0-2-3---------------|
|---------------------|
|
|---------------------|
|---------------------|
|-------5"-4"-5"-7"-5-|
|---------------------|gtr 2
|-0-2-3---------------|
|---------------------|



 Riff 4
|--------------------------------------------------------------|
|--------------------------------------------------------------|
|--------------------------------------------------------------|
|-2----------4---5------------9---4----------------------2-2---|gtr 1
|-0----------2---3------------7---2---------5--2-----222-0-0---|
|-------------------------------------------3--0-----000-------|
|
|--------------------------------------------------------------|
|--------------------------------------------------------------|
|-5"-4"-2"---4"5"9"-7"-5"-----9\7-7"-5"-4"--5"-7"-5"-5h7p5-----|
|----------------------------------------------------------7~~-|gtr 2
|--------------------------------------------------------------|
|--------------------------------------------------------------|



 Riff 5       (not sure in this)
|------------------------------------------------|
|------------------------------------------------|
|------------------------------------------------|
|------------------------------------------0-2-3-|gtr 1
|-7"--5"--6"--3"--5"--2"--3"-2"------0-2-3-------|
|-------------------------------0"---------------|
|
|------------------------------------------------|
|------------------------------------------------|
|------------------------------------------------|
|-10"-7"--9"--5"--7"--4"--5"-4"-2~~--------------|gtr 2
|------------------------------------------------|
|------------------------------------------------|

|----------------------------------------------------|
|----------------------------------------------------|
|-10"--7"--9"--5"--7"--4"--5"-4"---------------------|
|---------------------------------2~~----------------|gtr 1
|----------------------------------------------------|
|----------------------------------------------------|
|
|----------------------------------------------------|
|----------------------------------------------------|
|-10"--7"--9"--5"--7"--4"--5"-4"--2"----------7-9----|
|--------------------------------------7-9-10-----10-|gtr 2
|----------------------------------------------------|
|----------------------------------------------------|



 Riff 6
|-------------------------------------------------------|
|-------------------------------------------------------|
|-------------------------------------------------------|
|-2"-4"-5"-4"-2"--4"2"1"---2"-4"-5"-4"-2"--4"2"1"-2"-4"-|gtr 1
|-------------------------------------------------------|
|-------------------------------------------------------|
|
|-------------------------------------------------------|
|-------------------------------------------------------|
|-------------------------------------------------------|
|-2"-4"-5"-4"-2"--4"2"1"---2"-4"-5"-4"-2"--4"2"1"-2"-4"-|gtr 2
|-------------------------------------------------------|
|-------------------------------------------------------|

|---------------------------------------------|
|---------------------------------------------|
|----------------4"---------------------------|
|-2"---4"---2"---2"---2"//--\\2"---\1"--------|gtr 1
|-----------------------------------------2"--|
|---------------------------------------------|
|
|---------------------------------------------|
|---------------------------------------------|
|----------------4"---------------------------|
|-2"---4"---2"---2"---2"//--\\2"---\1"--------|gtr 2
|-----------------------------------------2"--|
|---------------------------------------------|


 Ending riff
|----------------------------------|
|----------------------------------|
|----------------------------------|
|-------------------------fade out-|gtr 1
|-222-222-222-222-222-222----------|
|-000-000-000-000-000-000----------|
|
|----------------------------------|
|----------------------------------|
|----------------------------------|
|-------------------------fade out-|gtr 2
|-222-222-222-222-222-222----------|
|-000-000-000-000-000-000----------|

  Visit MetalTabs.com for more metal tablature

bottom separator

Contact Us | Privacy Policy | Disclaimer | Legal Notice
Copyright © 2001-2014 MetalTabs.com. All Rights Reserved.