top separator

Home

Forum

What's New

Submit a Tab

FAQ

Links

Contact Us

Link to Us

MetalTabs.com logo

Bands

0-9

A

B

C

D

E

F

G

H

I

J

K

L

M

N

O

P

Q

R

S

T

U

V

W

X

Y

Z

Search

What

Where
 

Mithotyn - "Embraced by Frost" Guitar Tab

Plain Text Version
More Mithotyn Tabs

Hits: 2691
Rated: 4.67 out of 5 (3 votes)
Updated: 2004-08-11 10:25:27

 

By:

Daniil

sendpm.gif

email.gif

Important note
This tab is available online because we obtained explicit permission from Mithotyn or their label.


#----------------------------------PLEASE NOTE---------------------------------#
#This file is the author's own work and represents their interpretation of the #
#song. You may only use this file for private study, scholarship, or research. #
#Unless specified otherwise, this is NOT an official tab from the band members.#
#------------------------------------------------------------------------------#

  Visit MetalTabs.com for more metal tablature
  
MITHOTYN-Embraced By Frost
In The Sign Of The Ravens-1997
Transcribed by Daniil Laletin
"INVASION RECORDS"
e-mail: dlaletin@mail.ru
version 1.0 July 2004

All corrections are welcome.

 " - tremolo
 / - slide down
 \ - slide up
 . - palm mute
 ~ - long sound
 x - rest
 p - pull off
 h - hammer on
 tr - trill
 () - ghost note, sustained note

================================

 Intro 1a
|---------------------------------------------|
|---------------------------------------------|
|-2-4-5~--/9-5-/7-5-4~--/7-5-7-9~-/10-9-7-5-4-|
|---------------------------------------------|gtr 1
|---------------------------------------------|
|---------------------------------------------|
|
|---------------------------------------------|
|---------------------------------------------|
|---------------------------------------------|
|------------------------------5----5-5-5---4-|gtr 2
|-----7---------3--------5-----3----3-3-3---2-|
|-----5---------1--------3-----3----3-3-3-----|
                                    . . .
|------------------------------------------------------|
|------10----------------------------------------------|
|-/9~-----9-10-/12-10-9--10-9-7--9-7-5--7-5-4-4-5-4-2~-|
|------------------------------------------------------|gtr 1
|------------------------------------------------------|
|------------------------------------------------------|
|
|------------------------------------------------------|
|------------------------------------------------------|
|------------------------------------------------------|
|------------------------------------------------------|gtr 2
|--7---------3----------------5-------------2--222--7--|
|--5---------1----------------3-------------0--000--5--|



 Intro 1b
|---------------------------------------------|
|---------------------------------------------|
|-2-4-5~--/9-5-/7-5-4~--/7-5-7-9~-/10-9-7-5-4-|
|---------------------------------------------|gtr 1
|---------------------------------------------|
|---------------------------------------------|
|
|---------------------------------------------|
|---------------------------------------------|
|---------------------------------------------|
|------------------------------5----5-5-5---4-|gtr 2
|-----7---------3--------5-----3----3-3-3---2-|
|-----5---------1--------3-----3----3-3-3-----|
                                    . . .
|------------------------------------------------------|
|------10----------------------------------------------|
|-/9~-----9-10-/12-10-9--10-9-7--9-7-5--7-5-4-4-5-7-9~-|
|------------------------------------------------------|gtr 1
|------------------------------------------------------|
|------------------------------------------------------|
|
|------------------------------------------------------|
|------------------------------------------------------|
|------------------------------------------------------|
|------------------------------------------------------|gtr 2
|--7---------3----------------5-------------2--222--7--|
|--5---------1----------------3-------------0--000--5--|



 Riff 1
|-------------------------------------------------|
|-------------------------------------------------|
|-------------------------------------------------|
|-2-2-4-5-5-7-9-10-9-7-5-555-4-4-5-7-5-4---4------|gtr 1
|-0-0-2-3-3-5-7--8-7-5-3-333-2-2-3-5-3-2-6-2-2222-|
|----------------------------------------4---0000-|
|
|-------------------------------------------------|
|--------------------------------------------5555-|
|--------------------------------------------4444-|
|-2-2-4-5-5-7-9-10-9-7-5-555-4-4-5-7-5-4---4-2222-|gtr 2
|-0-0-2-3-3-5-7--8-7-5-3-333-2-2-3-5-3-2-6-2------|
|----------------------------------------4--------|



 Riff 2a
|-------------------------------------------------------------------|
|-------------------------------------------------------------------|
|-----------9"x-9"x-----------9"x-9"x--7"9"10"--12"10"7"--10"7"9"---|
|-10"x--9"x-7"x-7"x-10"x--9"x-7"x-7"x-------------------------------|gtr 1
|-12"x-10"x---------12"x-10"x---------------------------------------|
|-------------------------------------------------------------------|
|
|-------------------------------------------------------------------|
|-------------------------------------------------------------------|
|-----------9"x-9"x-----------9"x-9"x------10"--------7"-------9"---|
|-10"x--9"x-7"x-7"x-10"x--9"x-7"x-7"x------12"--------5"-------7"---|gtr 2
|-12"x-10"x---------12"x-10"x---------------------------------------|
|-------------------------------------------------------------------|

|--------------------------------|
|--------------------------------|
|-10"-9"-7"----------------------|
|-------------5"-----------------|gtr 1
|------------------7-----7-----7-|
|------------------5-555-5-555-5-|
|                    ...   ...
|--------------------------------|
|--------------------------------|
|--------------------------------|
|--------7"---5"-----------------|gtr 2
|--------5"---7"---7-----7-----7-|
|------------------5-555-5-555-5-|
                     ...   ...


 Riff 2b
|----------------------------------------------------------------------------|
|----------------------------------------------------------------------------|
|-------------9"--7"9"---------------9"--7"9"---7"9"10"--12"10"7"--10"7"9"---|
|-10"----9"---7"--7"7"---10"----9"---7"--7"7"--------------------------------|
|-12"---10"--------------12"---10"-------------------------------------------|
|----------------------------------------------------------------------------|
|gtr 1
|----------------------------------------------------------------------------|
|----------------------------------------------------------------------------|
|-------------9"---------------------9"-------------10"--------7"-------9"---|
|-10"----9"---7"---------10"----9"---7"-------------12"--------5"-------7"---|
|-12"---10"--------------12"---10"-------------------------------------------|
|----------------------------------------------------------------------------|
 gtr 2
|---------------------------------|
|---------------------------------|
|-10"-9"-7"-----------------------|
|-------------5"------------------|gtr 1
|------------------7-----7-----7--|
|------------------5-555-5-555-5--|
|                    ...   ...
|---------------------------------|
|---------------------------------|
|---------------------------------|
|--------7"---5"------------------|gtr 2
|--------5"---7"---7-----7-----7\-|
|------------------5-555-5-555-5\-|
                     ...   ...



 Riff 3
|-----------------------------------------------------------------------------|
|-----------------------------------------------------------------------------|
|-9"--7"--5"--7"--5"----4/5-7"-7"----4"-9"--7"--5"--7"--5"----4/5-7"-7"----4"-|
|-7"--7"--7"--5"--3"----2/3-5"----5"----7"--7"--7"--5"--3"----2/3-5"----5"----|
|-----------------------------------------------------------------------------|
|-----------------------------------------------------------------------------|
|gtr 1
|-----------------------------------------------------------------------------|
|-----------------------------------------------------------------------------|
|-9"--7"--5"--7"--5"----4/5-7"-7"----4"-9"--7"--5"--7"--5"----4/5-7"-7"----4"-|
|-7"--7"--7"--5"--3"----2/3-5"----5"----7"--7"--7"--5"--3"----2/3-5"----5"----|
|-----------------------------------------------------------------------------|
|-----------------------------------------------------------------------------|
 gtr 2
|----------------------------------------------------|
|----------------------------------------------------|
|----------------------------------------------------|
|-3-------------2-2----------------------------------|gtr 1
|-3-------55----3-3---------5--------7-------3---5---|
|---------33----------------3--------5-------1---3---|
|
|----------------------------------------------------|
|----------------------------------------------------|
|-2~---4-5-7~---9-9~~---7-5-4~---2-4-5~--7p5-2~-10-7-|
|----------------------------------------------------|gtr 2
|----------------------------------------------------|
|----------------------------------------------------|



 Riff 4a
|-------------------------------------------|
|-------------------------------------------|
|-------------------------------------------|
|-------------------------------------------|gtr 1
|-7-000-5-000-7-000-7-5-2-3-----2-----3-----|
|---------------------------111---111---111-|
|
|-------------------------------------------|
|-------------------------------------------|
|-------------------------------------------|
|-------------------------------------------|gtr 2
|-7-000-5-000-7-000-7-5-2-3-----2-----3-----|
|---------------------------111---111---111-|

|---------------------------------------------------|
|---------------------------------------------------|
|---------------------------------------------------|
|---------------------------------------------------|gtr 1
|-0-2-3-5-----3-----5-----8-7-5-7-000-5-000-7-5-3-2-|
|---------333---333---333---------------------------|
|
|---------------------------------------------------|
|---------------------------------------------------|
|---------------------------------------------------|
|---------------------------------------------------|gtr 2
|-0-2-3-5-----3-----5-----8-7-5-7-000-5-000---------|
|---------333---333---333-------------------8-7-5-3-|



 Riff 4b
|-------------------------------------------|
|-------------------------------------------|
|-------------------------------------------|
|-------------------------------------------|gtr 1
|-7-000-5-000-7-000-7-5-2-3-----2-----3-----|
|---------------------------111---111---111-|
|
|-------------------------------------------|
|-------------------------------------------|
|-------------------------------------------|
|-------------------------------------------|gtr 2
|-7-000-5-000-7-000-7-5-2-3-----2-----3-----|
|---------------------------111---111---111-|

|------------------------------------------------------------------------|
|------------------------------------------------------------------------|
|------------------------------------------------------------------------|
|-0-2-3-5-----3-----7-----5-----9-----7-----10-----9-----10"---9"--10"---|gtr 1
|---------333---333---555---555---777---777----777---777--8"--10"--12"---|
|------------------------------------------------------------------------|
|
|------------------------------------------------------------------------|
|------------------------------------------------------------------------|
|------------------------------------------------------------------------|
|-0-2-3-5-----3-----7-----5-----9-----7-----10-----9-----10"---9"--10"---|gtr 2
|---------333---333---555---555---777---777----777---777--8"--10"--12"---|
|------------------------------------------------------------------------|



 Little solo under riff 2b (guitar 2 part)
|-----------------------------------------------------|
|-----------------10~~~-13~-12-10-8~--10p8h10~-\------|
|-9~-10p9-9~-10p9--------------------------------12-9-|
|-----------------------------------------------------|
|-----------------------------------------------------|
|-----------------------------------------------------|

|-----------------------------------------------------------------10-12-14-18~-|
|-------------------------------------------------/13-12-10-12-13--------------|
|-10-9-7-10-9-7-10-9-7-10-9-7-9-7-5-9-7-5-9~--7~-------------------------------|
|------------------------------------------------------------------------------|
|------------------------------------------------------------------------------|
|------------------------------------------------------------------------------|



 Ending riff after riff 4b
|--------|
|--------|
|--------|
|--------|gtr 1
|-7--5-7-|
|-5--3-5-|
|
|--------|
|--------|
|--------|
|--------|gtr 2
|-7--5-7-|
|-5--3-5-|

  Visit MetalTabs.com for more metal tablature

bottom separator

Contact Us | Privacy Policy | Disclaimer | Legal Notice
Copyright © 2001-2014 MetalTabs.com. All Rights Reserved.