top separator

Home

Forum

What's New

Submit a Tab

FAQ

Links

Contact Us

Link to Us

MuSpy.com

MetalTabs.com logo

Bands

0-9

A

B

C

D

E

F

G

H

I

J

K

L

M

N

O

P

Q

R

S

T

U

V

W

X

Y

Z

Search

What

Where
 

Mithotyn - "In the Sign Of the Ravens" Guitar Tab

Plain Text Version
More Mithotyn Tabs

Hits: 2670
Rated: 5.00 out of 5 (2 votes)
Updated: 2004-08-11 10:23:52

 

By:

Daniil

sendpm.gif

email.gif

Important note
This tab is available online because we obtained explicit permission from Mithotyn or their label.


#----------------------------------PLEASE NOTE---------------------------------#
#This file is the author's own work and represents their interpretation of the #
#song. You may only use this file for private study, scholarship, or research. #
#Unless specified otherwise, this is NOT an official tab from the band members.#
#------------------------------------------------------------------------------#

  Visit MetalTabs.com for more metal tablature
  
MITHOTYN-In The Sign Of The Ravens
In The Sign Of The Ravens-1997
Transcribed by Daniil Laletin
"INVASION RECORDS"
e-mail: dlaletin@mail.ru
version 1.0 July 2004

All corrections are welcome.

 " - tremolo
 / - slide down
 \ - slide up
 . - palm mute
 ~ - long sound
 x - rest
 p - pull off
 h - hammer on
 tr - trill
 () - ghost note, sustained note

================================

 Intro
|--------------------------------------------------------|
|--------------------------------------------------------|
|--------------------------------------------------------|
|---------------------------------------666666-6-666-6---|gtr 1
|--------10-----10----------10-----10---888888-8-888-8---|
|-888888--8-888--8---888888--8-888--8---......-.-...-----|
| ......  . ...     ......  . ...
|--------------------------------------------------------|
|--------------------------------------------------------|
|--------------------------------------------------------|
|---------------------------------------666666-6-666-6---|gtr 2
|--------10-----10----------10-----10---888888-8-888-8---|
|-888888--8-888--8---888888--8-888--8---......-.-...-----|
  ......  . ...     ......  . ...
|----------------------------|
|----------------------------|
|----------------------------|
|-888888-8--121212121212-12\-|gtr 1
|-666666-6--101010101010-10\-|
|-......-.--............-----|
|
|----------------------------|
|----------------------------|
|----------------------------|
|-888888-8--121212121212-12\-|gtr 2
|-666666-6--101010101010-10\-|
|-......-.--............-----|

play this two times and then:
|---------------------------|
|---------------------------|
|---------------------------|
|---------------------------|gtr 1
|-10---10-10---10---10-10---|
|--8----8--8----8----8--8---|
|       .            .
|---------------------------|
|---------------------------|
|---------------------------|
|---------------------------|gtr 2
|-10---10-10---10---10-10---|
|--8----8--8----8----8--8---|
        .            .


 Riff 1
|----------------------------------------------------------|
|----------------------------------------------------------|
|------12"-10"--8"-7"--8"-7"------------7"-8"-------7"-8"--|
|-10"------------------------10"-8"-10"-------10"----------|gtr 1
|----------------------------------------------------------|
|----------------------------------------------------------|
|
|----------------------------------------------------------|
|----------------------------------------------------------|
|----------------------------------------------------------|
|----------------------------------------------------------|gtr 2
|-10"----------------------------8"-----------10"------6"--|
|--8"----------------------------6"------------8"------4"--|

|------------------------------------|
|------------------------------------|
|-7"-8"-12"---10"-8"-7"--------------|
|-----------------------8"--10"------|gtr 1
|-------------------------------10"--|
|------------------------------------|
|
|------------------------------------|
|------------------------------------|
|------------------------------------|
|-------8"---------------------------|gtr 2
|-------6"-----------8"-----10"--5"--|
|--------------------6"------8"--3"--|



 Riff 2a
|-----------------------------------------------------------------------|
|-----------------------------------------------------------------------|
|-----------------------------------------------------------------------|
|----5----------------------5~--6-8------------8------------5-3---------|gtr 1
|-3-----8-6-5-3--5-6--8-6-8---------66-8-6-5-5---6-5--8-6-5-----6-5-3---|
|---------------------------------------------------------------------6-|
|
|-----------------------------------------------------------------------|
|-----------------------------------------------------------------------|
|-----------------------------------------------------------------------|
|---------------------------------8-------------------5-5---5-3---------|gtr 2
|-10----6----------8--------5-----6--------3----------3-2-------6-5-3---|
|--8----4----------6--------3--------------1--------------------------6-|



 Riff 2b
|-----------------------------------------------------------------------|
|-----------------------------------------------------------------------|
|----"----------------------"---"-"------------"------------------------|
|-"--5--"-"-"-"--"-"--"-"-"-5~--6-8-""-"-"-"-"-8-"-"--"-"-"-5-3---------|gtr 1
|-3-----8-6-5-3--5-6--8-6-8---------66-8-6-5-5---6-5--8-6-5-----6-5-3---|
|---------------------------------------------------------------------6-|
|
|-----------------------------------------------------------------------|
|-----------------------------------------------------------------------|
|---------------------------------"-------------------"-"---------------|
|--"----"----------"--------"-----8--------"----------5-5---5-3---------|gtr 2
|-10----6----------8--------5-----6--------3----------3-2-------6-5-3---|
|--8----4----------6--------3--------------1--------------------------6-|



 Riff 3
|-------------------------------------------------------------------|
|-------------------------------------------------------------------|
|-------------------------------------------------------------------|
|-5------5------5------5------5------5------5------5---7--8---------|gtr 1
|-3---5--3---5--3---5--3---5--3---5--3---5--3---5--3---5--6----8----|
|-----3------3------3------3------3------3------3--------------6----|
|
|-------------------------------------------------------------------|
|-------------------------------------------------------------------|
|-------------------------------------------------------------------|
|-------------------------------------------------------------------|gtr 2
|----10"----10"----10"----10"----10"----10"----10"----12-13----8----|
|-8"-----8"-----8"-----8"-----8"-----8"-----8"-----8"-10-11----6----|


 first ending of riff 3              second ending of riff 3
|-----------------------------|            |------|
|-----------------------------|            |------|
|-----------------------------|            |------|
|-5------5------5------5------|            |------|gtr 1
|-3---5--3---5--3---5--3---5--|            |-10---|
|-----3------3------3------3--|            |--8---|
|                                          |
|-----------------------------|            |------|
|-----------------------------|            |------|
|-----------------------------|            |------|
|-----------------------------|            |------|gtr 2
|----10"----10"----10"----10"-|            |-10---|
|-8"-----8"-----8"-----8"-----|            |--8---|



 Riff 4a
|-----------------------------------------------------------------|
|-----------------------------------------------------------------|
|-----------------------------------------------------------------|
|-----------------------------------------------------------------|gtr 1
|-10------10------10------10------10------10------10------10------|
|--8-8888--8-88-7--8-8888--8-88-7--8-8888--8-88-7--8-8888--8-88-7-|
|
|-----------------------------------------------------------------|
|-----------------------------------------------------------------|
|-----------------------------------------------------------------|
|-----------------------------------------------------------------|gtr 2
|-10------10------10------10------10------10------10------10------|
|--8-8888--8-88-7--8-8888--8-88-7--8-8888--8-88-7--8-8888--8-88-7-|



 Riff 4a
|----------------------------------------------------------|
|----------------------------------------------------------|
|----------------------------------------------------------|
|----------------------------------------------------------|gtr 1
|-10------10------10------10------10------10------10-----\-|
|--8-8888--8-88-7--8-8888--8-88-7--8-8888--8-88-7--8-----\-|
|
|----------------------------------------------------------|
|----------------------------------------------------------|
|----------------------------------------------------------|
|----------------------------------------------------------|gtr 2
|-10------10------10------10------10------10------10-----\-|
|--8-8888--8-88-7--8-8888--8-88-7--8-8888--8-88-7--8-----\-|



 Riff 5
|--------------------------------------------------------------|
|--------------------------------------------------------------|
|-12-12h13p12p10h12~---12-12h13p12p10h12~---13-13h15p13p12h13~-|
|--------------------------------------------------------------|gtr 1
|--------------------------------------------------------------|
|--------------------------------------------------------------|
|
|--------------------------------------------------------------|
|--------------------------------------------------------------|
|--------------------------------------------------------------|
|--------------------------------------------------------------|gtr 2
|-10-------------------13-------------------15-----------------|
|--8-------------------11-------------------13-----------------|

|-----------------------------|
|-----------------------------|
|-12-12h13p12p10h12~-10-12-13-|
|-----------------------------|gtr 1
|-----------------------------|
|-----------------------------|
|
|-----------------------------|
|-----------------------------|
|-----------------------------|
|-----------------------------|gtr 2
|--5------------------9-------|
|--3------------------7-------|



 Riff 6
|---------------------------------------------------------------|
|---------------------------------------------------------------|
|-12-12-13-12-10-12~-10-12-13-10-12-12-13-12-10-12~-10-12-13-10-|
|---------------------------------------------------------------|gtr 1
|---------------------------------------------------------------|
|---------------------------------------------------------------|
|
|---------------------------------------------------------------|
|---------------------------------------------------------------|
|---------------------------------------------------------------|
|---------------------------------------------------------------|gtr 2
|-10------------10---------------13-------------13--------------|
|--8---8-8-8-8---8---8-8-8-8-----11-11-11-11-11-11-11-11-11-11--|

|---------------------------------------------------------------|
|---------------------------------------------------------------|
|-13-13-15-13-12-13~-12-13-15-13-12-12-13-12-10-12~-10-12-13-10-|
|---------------------------------------------------------------|gtr 1
|---------------------------------------------------------------|
|---------------------------------------------------------------|
|
|---------------------------------------------------------------|
|---------------------------------------------------------------|
|---------------------------------------------------------------|
|---------------------------------------------------------------|gtr 2
|-15-------------15---------------5------------------9----------|
|-13-13-13-13-13-13-13-13-13-13---3------------------7----------|


 Ending riff
|---------------|
|---------------|
|-12~~~~--------|
|---------------|gtr 1
|---------------|
|---------------|
|
|---------------|
|---------------|
|---------------|
|---------------|gtr 2
|-10---------10-|
|--8----------8-|

  Visit MetalTabs.com for more metal tablature

bottom separator

Contact Us | Privacy Policy | Disclaimer | Legal Notice
Copyright © 2001-2014 MetalTabs.com. All Rights Reserved.