top separator

Home

Forum

What's New

Submit a Tab

FAQ

Links

Contact Us

Link to Us

MetalTabs.com logo

Bands

0-9

A

B

C

D

E

F

G

H

I

J

K

L

M

N

O

P

Q

R

S

T

U

V

W

X

Y

Z

Search

What

Where
 

Mithotyn - "Upon raging waves" Guitar Tab

Plain Text Version
More Mithotyn Tabs

Hits: 3738
Rated: 5.00 out of 5 (3 votes)
Updated: 2004-08-11 10:23:45

 

By:

Daniil

sendpm.gif

email.gif

Important note
This tab is available online because we obtained explicit permission from Mithotyn or their label.


#----------------------------------PLEASE NOTE---------------------------------#
#This file is the author's own work and represents their interpretation of the #
#song. You may only use this file for private study, scholarship, or research. #
#Unless specified otherwise, this is NOT an official tab from the band members.#
#------------------------------------------------------------------------------#

  Visit MetalTabs.com for more metal tablature
  
MITHOTYN-Upon Raging Waves
In The Sign Of The Ravens-1997
Transcribed by Daniil Laletin
"INVASION RECORDS"
e-mail: dlaletin@mail.ru
version 1.0 July 2004

All corrections are welcome.

 " - tremolo
 / - slide down
 \ - slide up
 . - palm mute
 ~ - long sound
 x - rest
 p - pull off
 h - hammer on
 tr - trill
 () - ghost note, sustained note

================================

 Intro by keyboard
|--------------------------|
|--------------------------|
|-4-6-7--6-4-6--4-3-4------|
|---------------------4----|
|-----------------------2--|
|--------------------------|
 play it two times and then

 Intro by guitars
|---------------------------------------------------|
|----------------7-5-3------------------------------|
|-4-6-7--6-4-6---------6-4--4-6-7--6-4-6--4-3-4-----|
|-----------------------------------------------4---|gtr 1
|-------------------------------------------------2-|
|---------------------------------------------------|
|
|---------------------------------------------------|
|---------------------------------------------------|
|------------------4----------------------------4---|
|--------------4-4-4---------------------4----4-4---|gtr 2
|-9-7-5------4-4-2-------5--5-4-2------4-4----2---2-|
|-7-5-3------2-----------3--3-2-0------2------------|



 Riff 1
|-----------------------------------------------------------------------|
|-----------------------------------------------------------------------|
|-4"-6"-7"--6"-4"-6"--4"-3"-4"-------4"-6"-7"--6"-4"-6"--4"-3"-4"-------|
|------------------------------4"---------------------------------4"----|gtr 1
|---------------------------------2"---------------------------------2"-|
|-----------------------------------------------------------------------|
|
|-----------------------------------------------------------------------|
|-----------------------------------------------------------------------|
|-4"--------------------------------------------------------------------|
|----4"-----4"--------2"-------4"----4"--------4"--------2"-------4"----|gtr 2
|-------2"--------0"--------2"----2"-------2"--------0"--------2"----2"-|
|-----------------------------------------------------------------------|

|--------------------------------------------------------------------------|
|-----------------------7"-5"-3"-------------------------------------------|
|-4"-6"-7"--6"-4"-6"-------------6"-4"--4"-6"-7"--6"-4"-6"--4"-3"-4"-------|
|--------------------------------------------------------------------4"----|
|-----------------------------------------------------------------------2"-|
|--------------------------------------------------------------------------|
|gtr 1
|--------------------------------------------------------------------------|
|--------------------------------------------------------------------------|
|-----------------------------------------------------------------------4"-|
|-----------------------------4"-------------------------------------4"----|
|-2"-0"--------------4"-2"---------------------------------4"-----2"-------|
|-------3"--------2"----------------3"--3"-2"-0"--------2"-----------------|
 gtr 2


 Riff 2
|----------------------------------------------------------------|
|----------------------------------------------------------------|
|-4~-7-6--4-3-3h4-4--------3-4-7-6-4-3h4-4h6-6h7-7-6-4-3---7-6-4-|
|-------------------4~---4-------------------------------4-------|gtr 1
|----------------------------------------------------------------|
|----------------------------------------------------------------|
|
|----------------------------------------------------------------|
|----------------------------------------------------------------|
|----------------------------------------------------------------|
|-4-------------4-4------4------------6---7------9---7---------4-|gtr 2
|-2-------------2-2-4----2------------4---5------7---5---4-----2-|
|-2-------------.-.-2----2-----------------------7-------2-------|

|-------------------------------------------------------------|
|-----------------------------------------5-7~-8-7--5---------|
|-4~-7-6--4-3-3h4-4------4~-7-6-4-3-4-6-7-------------7-6-3-4-|
|-------------------4~----------------------------------------|gtr 1
|-------------------------------------------------------------|
|-------------------------------------------------------------|
|
|-------------------------------------------------------------|
|-------------------------------------------------------------|
|-------------------------------------------------------------|
|-4-------------4-4------4------------6-7---9----7-----11---4-|gtr 2
|-2-------------2-2-4----2------------4-5---7----5------9---2-|
|-2-------------.-.-2----2------------------7-----------9-----|



 Riff 3 - hard to hear, but i think this is right
|----------------------------------------------------------------------------|
|----------------------------------------------------------------------------|
|----------------------------------4h5p2---------------5"4"-2"--4-5-4-5-4-9\-|
|-4"---2"-4"-5"------4"---2"-4"-5"-------4"---2"-4"-5"-----------------------|
|----------------3"----------------------------------------------------------|
|----------------------------------------------------------------------------|
|gtr 1
|----------------------------------------------------------------------------|
|----------------------------------------------------------------------------|
|----------------------------------------------------------------------------|
|-4"---------5"--2"--4"---------5"-9"-7"-4"---------5"-2"---5"--4"--------9\-|
|-2"---------3"--0"--2"---------3"-7"-5"-2"---------3"-0"---3"--2"--------7\-|
|----------------------------------------------------------------------------|
 gtr 2


 Riff 4
|---------------------------------------------------------------|
|---------------------------------------------------------------|
|--------------------------4h5p2------------5-4-2~-4h5-4h5-4-9\-|
|-4~-4-2h4h5----4~-4-2h4h5-------4~-4-2h4h5---------------------|gtr 1
|------------3~-------------------------------------------------|
|---------------------------------------------------------------|
|
|---------------------------------------------------------------|
|---------------------------------------------------------------|
|---------------------------------------------------------------|
|------------------------------------------------------------9\-|gtr 2
|-2--2-----3-0--2--2-----3--7-5--2--2-----3-0---3--2---------7\-|
|-2--2-----3-0--2--2-----3--7-5--2--2-----3-0---3--2------------|




 Riff 5 - listen to CD to get the rythm
|-------------------------------------------------------------|
|-------------------------------------------------------------|
|-------------9"---7--9-7-6-7-6-------------------------------|
|--9"---5"----------------------7"-------5"-------------------|gtr 1
|-----------------------------------------------5"----4"------|
|-------------------------------------------------------------|
|
|-------------------------------------------------------------|
|-------------------------------------------------------------|
|-------------------------------------------------------------|
|-------------------------------------------------------------|gtr 2
|-10"---7"---10"---9-10-9-7-9-7-5"-7-9-7-5"-5-7-5-4-5-4-1-2-4-|
|-------------------------------------------------------------|



 Riff 6
|--------------------------------------------------|
|--------------------------------------------------|
|--------------------------------------------------|
|--------------------------------------------------|gtr 1
|-2-22--2-22--5-55--7-77---2-22--2-22--0-00--4-----|
|-2-22--2-22--5-55--7-77---2-22--2-22--0-00--2-----|
|                                                   > 2 times
|--------------------------------------------------|
|-------------7-5-3-5-3-2--------------------------|
|-7-6-4-7-6-4-------------/7-6-4-7-6-4-2-4-6---2-4-|
|--------------------------------------------4-----|gtr 2
|--------------------------------------------------|
|--------------------------------------------------|

|-----------------------------------------------|
|-----------------------------------------------|
|-----------------------------------------------|
|-----------------------------------------------|gtr 1
|--2-22--2-22--5-55-7-77--2-22-2-22-0-00--4-----|
|--2-22--2-22--5-55-7-77--2-22-2-22-0-00--2-----|
|                                                > 2 times
|-----------------------------------------------|
|-/7-8-7-5-3-5-3-2-0-2-3-/7~-5-3-2------2-------|
|-----------------------------------2-4-----2-4-|
|-----------------------------------------4-----|gtr 2
|-----------------------------------------------|
|-----------------------------------------------|

|----------------|
|----------------|
|----------------|
|-4--------------|gtr 1
|-2--------------|
|----------------|
|                 > ending of riff 6
|-----------7~---|
|------7~--------|
|-4~-------------|
|----------------|gtr 2
|----------------|
|----------------|



 Riff 7
|-----------------------------------------------------------------------|
|-----------------------------------------------------------------------|
|-4"-6"-7"--6"-4"-6"--4"-3"-4"-------4"-6"-7"--6"-4"-6"--4"-3"-4"-------|
|------------------------------4"---------------------------------4"----|gtr 1
|---------------------------------2"---------------------------------2"-|
|-----------------------------------------------------------------------|
|
|-----------------------------------------------------------------------|
|-----------------------------------------------------------------------|
|-4"--------------------------------------------------------------------|
|----4"-----4"--------2"-------4"----4"--------4"--------2"-------4"----|gtr 2
|-------2"--------0"--------2"----2"-------2"--------0"--------2"----2"-|
|-----------------------------------------------------------------------|

|--------------------------------------------------------------------------|
|-----------------------7"-5"-3"-------------------------------------------|
|-4"-6"-7"--6"-4"-6"-------------6"-4"--4"-6"-7"--6"-4"-6"--4"-3"-4"-------|
|--------------------------------------------------------------------4"----|
|-----------------------------------------------------------------------2"-|
|--------------------------------------------------------------------------|
|gtr 1
|--------------------------------------------------------------------------|
|--------------------------------------------------------------------------|
|-----------------------------4--------------------------------------4-----|
|-4--2---------------4--4-----4----------------------------4------4--4-----|
|-2--0--5---------4--4--2-----------5---5--4--2---22----4--4------2-----2--|
|-------3---------2-----------------3---3--2--0---00----2------------------|
 gtr 2

  Visit MetalTabs.com for more metal tablature

bottom separator

Contact Us | Privacy Policy | Disclaimer | Legal Notice
Copyright © 2001-2014 MetalTabs.com. All Rights Reserved.