top separator

Home

Forum

What's New

Submit a Tab

FAQ

Links

Contact Us

Link to Us

MetalTabs.com logo

Bands

0-9

A

B

C

D

E

F

G

H

I

J

K

L

M

N

O

P

Q

R

S

T

U

V

W

X

Y

Z

Search

What

Where
 

Justice - "Future oppressions" Guitar Tab

Plain Text Version
More Justice Tabs

Hits: 2482
Rated: 2.00 out of 5 (2 votes)
Updated: 2004-08-08 07:06:05

 

By:

sendpm.gif

email.gif

Important note
This tab is available online because we obtained explicit permission from Justice or their label.


#----------------------------------PLEASE NOTE---------------------------------#
#This file is the author's own work and represents their interpretation of the #
#song. You may only use this file for private study, scholarship, or research. #
#Unless specified otherwise, this is NOT an official tab from the band members.#
#------------------------------------------------------------------------------#

  Visit MetalTabs.com for more metal tablature
  
Band:  Justice
Album: Hammer Of Justice
Song:  Future Opressions


Transcribed By: Johann Bauer
Email:          jb_software@hotmail.com

Eb + Drop D Tuning

                              Future Opressions

Intro

Git I

D#||--------------------------|-------------------------|
A#||--------------------------|-------------------------|
F#||*---------------12--------|---------------12--------|
C#||*---------11----------11--|---------11----------11--|
G#||---9----------------------|--9----------------------|
C#||--------------------------|-------------------------|
  ||
Git II
D#||--------------------------|-------------------------|
A#||--------------------------|-------------------------|
F#||--------------------------|-------------------------|
C#||---4-------------------4--|--4----------------------|
G#||---4-------------------4--|--4----------------------|
C#||---4-------------------4--|--4----------------------|


|--------------------------|---------------------------||
|--------------------------|---------------------------||
|--------------------------|--------------------------*||
|----------------14--------|----------------16--------*||
|----------12----------12--|----------14----------14---||
|--12----------------------|--14-----------------------||
|
|
|Git II
|--------------------------|-------------------------|
|--------------------------|-------------------------|
|--------------------------|-------------------------|
|---0-------------------0--|--2----------------------|
|---0-------------------0--|--2----------------------|
|---0-------------------0--|--2----------------------|


Riff 1:
                                                              4x
|-------------------------------|-----------------------------||
|-------------------------------|-----------------------------||
|-------------------------------|-----------------------------||
|---4-4--4-4--4-4---------------|--0-0--0-0--2-2--2-2--2--2---||
|---4-4--4-4--4-4--4-5--4-5-7-4-|--0-0--0-0--2-2--2-2--2--2---||
|---4-4--4-4--4-4--4-5--4-5-7-4-|--0-0--0-0--2-2--2-2--2--2---||


Verse:
                                                             4x
-------------------------------|-----------------------------||
-------------------------------|-----------------------------||
-------------------------------|-----------------------------||
---4-4--4-4--4-4--4-4--11--11/-|--4-4--4-4--4-4--4-4--9--9/--||
---4-4--4-4--4-4--4-4--9---9/--|--4-4--4-4--4-4--4-4--7--7/--||
---4-4--4-4--4-4--4-4----------|--4-4--4-4--4-4--4-4---------||


Chorus:
                                          4x
--------------------|---------------------|
--------------------|---------------------|
--------------------|---------------------|
---4----------------|--0--------2---------|
---4----------------|--0--------2---------|
---4----------------|--0--------2---------|


Bridge:
                                 4x
|--------------------------------||
|--------------------------------||
|--------------------------------||
|---4-4--4-4--4-4----------------||
|---4-4--4-4--4-4--4-5--4-5-7-4--||
|---4-4--4-4--4-4--4-5--4-5-7-4--||


End:

-------------------------|-------------------------||
-------------------------|-------------------------||
-------------------------|-------------------------||
--4----2----4------------|--4----2----4------------||
--4----2----4------------|--4----2----4------------||
--4----2----4------------|--4----2----4------------||

  Visit MetalTabs.com for more metal tablature

bottom separator

Contact Us | Privacy Policy | Disclaimer | Legal Notice
Copyright © 2001-2014 MetalTabs.com. All Rights Reserved.