top separator

Home

Forum

What's New

Submit a Tab

FAQ

Links

Contact Us

Link to Us

MetalTabs.com logo

Bands

0-9

A

B

C

D

E

F

G

H

I

J

K

L

M

N

O

P

Q

R

S

T

U

V

W

X

Y

Z

Search

What

Where
 

God Dethroned - "Soul Capture 1562" Guitar Tab

Plain Text Version
More God Dethroned Tabs

Hits: 4362
Rated: 4.00 out of 5 (2 votes)
Updated: 2004-08-06 05:16:55

 

By:

Father Death

sendpm.gif

email.gif

Important note
This tab is available online because we obtained explicit permission from God Dethroned or their label.


#----------------------------------PLEASE NOTE---------------------------------#
#This file is the author's own work and represents their interpretation of the #
#song. You may only use this file for private study, scholarship, or research. #
#Unless specified otherwise, this is NOT an official tab from the band members.#
#------------------------------------------------------------------------------#

  Visit MetalTabs.com for more metal tablature
  
Band:  GOD DETHRONED
Album: Bloody Blasphemy
Song:  Soul Capture 1562

Transcribed by:        Chris Humeniuk
Email:  father_death_666@hotmail.com

Tuning:        1 step down

Keys:
 ___ - palm mute
 / \ - slide
  p  - pull off
  h  - hammer on
  b  - bend
  r  - release bend
  x  - mute


INTRO: (some variation here and there)
(Gtr 1)
|-----------------------------------------------------------------------
|-----------------------------------------------------------------------
|-----------------------------------------------------------------------
|-5---------------------------------5-5---------------------------------
|-5---------------------------------5-5---------------------------------
|-3---------------------------------3-3---------------------------------

(Gtr 2)
|-----------------------------------------------------------------------
|-----------------------------------------------------------------------
|-----------------------------------------------------------------------
|-----------------------9-------9-9------------------------9-------9-9--
|-10-9-10-9-10-12-10-12-----12-------10-9-10-9-10-12-10-12-----12-------
|-----------------------------------------------------------------------

(Gtr 1)
 -----------------------------------------------------------------------|
 -----------------------------------------------------------------------|
 -----------------------------------------------------------------------|
 -2---------------------------------2-2---------------------------------|
 -2---------------------------------2-2---------------------------------|
 -0---------------------------------0-0---------------------------------|

(Gtr 2)
 -----------------------------------------------------------------------|
 -----------------------------------------------------------------------|
 -----------------------------------------------------------------------|
 -----------------------9-------9-9------------------------9-------9-9--|
 -7---10-9-10-12-10-12-----12---------7---10-9-10-12-10-12-----12-------|
 -----------------------------------------------------------------------| 4x


Gtr 1 throws this in at the end of the riff before the chorus starts:

|-0---------|
|----0------|
|-----------|
|-----------|
|-----------|
|-----------|


CHORUS:

|-----------------------------------------------------0--
|-----------------------------------------------------0--
|-9----9-7---7--4----4-5------9----9-7---7--4-5----------
|-9----9-7---7--4----4-5---5--9----9-7---7--4-5-5-2------
|-7-77-7-5---5--2-22-2-3---5--7-77-7-5---5--2-3-5-2------
|--------------------------3--------------------3-0------
    __            __            __

 --------------------------------------------------------|
 --------------------------------------------------------|
 -9----9-7---7--4----4-5------9----9-7---7--4-5----------|
 -9----9-7---7--4----4-5---5--9----9-7---7--4-5-5-2------|
 -7-77-7-5---5--2-22-2-3---5--7-77-7-5---5--2-3-5-2------|
 --------------------------3--------------------3-0------|
    __            __            __

INTRO - 4x


CHORUS


INTRO - 1x


CHORUS


INTERLUDE: (light dist.)

|-----------3-----2-----0--|
|--------------------------|
|-0-----------0-----0------|
|-5\2---2-------2-----2----|
|--------------------------|
|-----0--------------------| 4x

(Gtr 1)
|---------3p0-------------5p0-------------3p0-------------5p0-----|
|-----------------------------------------------------------------|
|-----0---------------0---------------0---------------0-----------|
|---2---2-----2-----4---4-----4-----2---2-----2-----4---4-----4---|
|-3-------------3-5-------------5-3-------------3-5-------------5-|
|-----------------------------------------------------------------|

(Gtr 2)
|----------------------------------------------------------------------------|
|(13)------------(12)------------(10)----------------------------------------|
|------------------------------------------------(11)------------(12)--------|
|----------------------------------------------------------------------------|
|----------------------------------------------------------------------------|
|----------------------------------------------------------------------------|

(Gtr 1)
|-----------3-----2-----0--|
|--------------------------|
|-0-----------0-----0------|
|-5\2---2-------2-----2----|
|--------------------------|
|-----0--------------------| 4x

(Gtr 1)
|---------3p0-------------5p0-------------3p0-------------5p0----------------|
|----------------------------------------------------------------------------|
|-----0---------------0---------------0---------------0----------------------|
|---2---2-----2-----4---4-----4-----2---2-----2-----4---4-----4--------------|
|-3-------------3-5-------------5-3-------------3-5-------------5-7----------|
|----------------------------------------------------------------------------|

(Gtr 2)
|----------------------------------------------------------------------------|
|(13)------------(12)------------(10)----------------------------------------|
|------------------------------------------------(11)------------(12)--------|
|----------------------------------------------------------------------------|
|----------------------------------------------------------------------------|
|----------------------------------------------------------------------------|


RIFF A:

|-------------------------------------------------------------------------|
|----------5-----------8------------8-------------8------------8----------|
|----------4----5-7-9--7-7---5-7-9--7-5------5-9--7-7---5-7-9--7-5------5-|
|-2--------2----5-7-9--5-7---5-7-9--5-5------5-9--5-7---5-7-9--5-5------5-|
|-2--------2----3-5-7----5---3-5-7----3---33-3-7----5---3-5-7----3---33-3-|
|-0--------0--------------------------------------------------------------|
                                          __                         __


RIFF B: (play this sloppy, throwing in random open notes on the top strings)

|----------------------------------------------------------|
|----------------------------------------------------------|
|---------0--------------0--------------0-------------5--7-|
|-----5-5-5--7-7-7\5-----5--7-7-7\5-----5--7-7-7\5-5--5--7-|
|-9\7-7-7-7--9-9-9\7-7-7-7--9-9-9\7-7-7-7--9-9-9\7-7--3--5-|
|----------------------------------------------------------| 4x


SOLO:
(Gtr 1)
|--------------------------------------------------------------|
|----8------------------------------8--------------------------|
|-9--7-7---7-7-777-7-7-777-7-5-7-9--7-5--5-5-555-5-5-555-5-5-7-|
|-9--5-7---7-7-777-7-7-777-7-5-7-9--5-5--5-5-555-5-5-555-5-5-7-|
|-7----5---5-5-555-5-5-555-5-3-5-7----3--3-3-333-3-3-333-3-3-5-|
|--------------------------------------------------------------| 2x

(Gtr 2)
|------------------------------------------------------
|-----8h10-10b(11)r-8h10-10b(11)-r--10b(12)--r-(10)~---
|-7h9--------------------------------------------------
|------------------------------------------------------
|------------------------------------------------------
|------------------------------------------------------

 -----------------------------------------------
 -8h10--7h8p7-----------------------------------
 -------------9p7-9p7---------------------------
 ---------------------10p8----------------------
 --------------------------9\7/9\7/9~--/10--\5--
 -----------------------------------------------

 --------------------------------------------
 -15b-17b-17b(19)-r--15h17-17-b-(18)-15h17~--
 --------------------------------------------
 --------------------------------------------
 --------------------------------------------
 --------------------------------------------

 -15-17-18b(19)r-15-17-18b(19)r-15-17-18b(19)r-18b(19)-----------------|
 ------------------------------------------------------17~----------\--|
 ----------------------------------------------------------------------|
 ----------------------------------------------------------------------|
 ----------------------------------------------------------------------|
 ----------------------------------------------------------------------|


RIFF B - 4x


RIFF C:
(Gtr 1)
|--------------------------------------------------------------|
|----8------------------------------8--------------------------|
|-9--7-7---7-7-777-7-7-777-7-5-7-9--7-5--5-5-555-5-5-555-5-5-7-|
|-9--5-7---7-7-777-7-7-777-7-5-7-9--5-5--5-5-555-5-5-555-5-5-7-|
|-7----5---5-5-555-5-5-555-5-3-5-7----3--3-3-333-3-3-333-3-3-5-|
|--------------------------------------------------------------|

(Gtr 2)
|--------------------------------------------------------------|
|(12)-(10)----------------------(12)---------------------------|
|--------------------------------------(12)--(11)-----(9)------|
|--------------------------------------------------------------|
|--------------------------------------------------------------|
|--------------------------------------------------------------| 2x


RIFF B - 4x


RIFF C - 2x


INTRO - 2x (the ringing high notes in the middle of the riff are 3's)


CHORUS


OUTRO:

|----------------------------------------------------------
|----------------------------------------------------------
|---------------------------------------------------5--5-3-
|---------------------------------------------------x--x-x-
|-2--------2/4\2--------2-5-2-2--------2/4\2--------3--3-1-
|-0-000000-3/5\3-000000-3-6-3-0-000000-3/5\3-000000--------
    ______       ______         ______       ______

 -----------------------------------------------------------------|
 -----------------------------------------------------------------|
 ------------------------------------------5/8--5\3--5/9--8/9\8/9-|
 ------------------------------------------x----x----x----x-------|
 -2--------4--------2--------2/5--2--------3/6--3\1--3/7--6/7\6/7-|
 -3-000000-5-000000-3-000000-3/6--3-000000------------------------| 3x
    ______   ______   ______        ______

|---------------------------0-------------3-------------0-------------3--|
|----------------------6----0--------6----3--------6----0--------6----3--|
|----------------6--3--5-------6--3--5-------6--3--5-------6--3--5-------|
|----------------6--3--3-2-----6--3--3-5-----6--3--3-2-----6--3--3-5-----|
|-2--------------4--1----2-----4--1----5-----4--1----2-----4--1----5-----|
|-0-000000000000---------0-------------3-------------0-------------3-----|
    ____________

|----------------------------------------------------------
|----------------------------------------------------------
|---------------------------------------------------5--5-3-
|---------------------------------------------------x--x-x-
|-2--------2/4\2--------2-5-2-2--------2/4\2--------3--3-1-
|-0-000000-3/5\3-000000-3-6-3-0-000000-3/5\3-000000--------
    ______       ______         ______       ______

 -----------------------------------------------------------------|
 -----------------------------------------------------------------|
 ------------------------------------------5/8--5\3--5/9--8/9\8/9-|
 ------------------------------------------x----x----x----x-------|
 -2--------4--------2--------2/5--2--------3/6--3\1--3/7--6/7\6/7-|
 -3-000000-5-000000-3-000000-3/6--3-000000------------------------| 2x
    ______   ______   ______        ______

|---------------------------0-------------3-------------0-------------3-----|
|----------------------6----0--------6----3--------6----0--------6----3--5--|
|----------------6--3--5-------6--3--5-------6--3--5-------6--3--5-------4--|
|----------------6--3--3-2-----6--3--3-5-----6--3--3-2-----6--3--3--5----2--|
|-2--------------4--1----2-----4--1----5-----4--1----2-----4--1-----5----2--|
|-0-000000000000---------0-------------3-------------0--------------3----0--|
    ____________

let ring...the end.

  Visit MetalTabs.com for more metal tablature

bottom separator

Contact Us | Privacy Policy | Disclaimer | Legal Notice
Copyright © 2001-2014 MetalTabs.com. All Rights Reserved.