top separator

Home

Forum

FAQ

Contact Us

Link to Us

MetalTabs.com logo

Bands

0-9

A

B

C

D

E

F

G

H

I

J

K

L

M

N

O

P

Q

R

S

T

U

V

W

X

Y

Z

Moonspell - "Can't Bee" Guitar Tab

Plain Text Version
More Moonspell Tabs

Hits: 2702
Updated: 2004-08-05 10:12:57

By:


#----------------------------------PLEASE NOTE---------------------------------#
#This file is the author's own work and represents their interpretation of the #
#song. You may only use this file for private study, scholarship, or research. #
#Unless specified otherwise, this is NOT an official tab from the band members.#
#------------------------------------------------------------------------------#

  Visit MetalTabs.com for more metal tablature
  
Band:  Moonspell
Album: The butterfly effect
Song:  Can't bee

Copyright (c)  Century media 1999
Version 1.0 - 02-08-2004

Transcribed By: NathanaŽl Ares
Email:          Vampiria_NL2@hotmail.com

r  - rest

Riff 1, clean
E||-----5-----5--|
B||--3--3--3--3--|
G||--2--2--2--2--|
D||--2--2--2--2--|
A||--0-----0-----|
E||--------------|

Riff 2, wahwah, no distortion
|--------------------|--------------------|
|--------------------|--------------------|
|--2--------4--------|--2--------4--------|
|--0--------2--------|--0--------2--------|
|--------------------|--------------------|
|--------------------|--------------------|


Riff 3, distortion
|--------------------------|
|--------------------------|
|--------------------------|
|--2--2--r--2--2--r--2--2--|
|--2--2--r--2--2--r--2--2--|
|--0--0--r--0--0--r--0--0--|
Pm x  x     x  x     x  x

Riff 4, distortion
|------------------------------------------------------------------------|
|------------------------------------------------------------------------|
|------------------------------------------------------------------------|
|--7-----7--7---------7--7-----7--7--7--3-----3--3--3-----3--3--3-3-3-3--|
|--7-----7--7---------7--7-----7--7--7--3-----3--3--3-----3--3--3-3-3-3--|
|--5--0--5--5--7-6-5--5--5--0--5--5--5--1--0--1--1--1--0--1--1--1-1-1-1--|
Pm    x                     x              x           x

riff 5, distortion
|---------------------------|
|---------------------------|
|---------------------------|
|--5-5-5-5-5-5-7-7-7-7-7-7--|
|--5-5-5-5-5-5-7-7-7-7-7-7--|
|--3-3-3-3-3-3-5-5-5-5-5-5--|

Riff 6, distortion
|--5----------------||
|--5----------------||
|--6----------------||
|--7----------------||
|--7----------------||
|--5----------------||


Riff 1
Riff 2
Riff 1
Riff 2
Riff 1
Riff 2
Riff 3
Riff 4 x2
Riff 5
Riff 3
Riff 1
Riff 2
Riff 3
Riff 4 x2
Riff 5
Riff 3
Riff 4 x2
Riff 5
Riff 6

  Visit MetalTabs.com for more metal tablature

bottom separator

Contact Us | Privacy Policy | Disclaimer
Copyright © 2001-2014 MetalTabs.com. All Rights Reserved.