top separator

Home

Forum

FAQ

Contact Us

Link to Us

MetalTabs.com logo

Bands

0-9

A

B

C

D

E

F

G

H

I

J

K

L

M

N

O

P

Q

R

S

T

U

V

W

X

Y

Z

Life of Agony - "Here I Am, Here I Stay" Guitar Tab

Plain Text Version
More Life of Agony Tabs

Hits: 1772
Rated: 5.00 out of 5 (1 vote)
Updated: 2004-08-05 10:12:49

By:


#----------------------------------PLEASE NOTE---------------------------------#
#This file is the author's own work and represents their interpretation of the #
#song. You may only use this file for private study, scholarship, or research. #
#Unless specified otherwise, this is NOT an official tab from the band members.#
#------------------------------------------------------------------------------#

  Visit MetalTabs.com for more metal tablature
  
Band:  Life of agony
Album: 1989 - 1999 (the song is also from the 4th demo of LOA)
Song:  Here I am, here I stay

Copyright (c)  Roadrunner records - The all blacks B.V. 1999

Transcribed By: NathanaŽl Ares
Email:          Vampiria_NL2@hotmail.com


.  - palm mute           /  - slide up to
\  - slide down to       ~  - vibrato
h  - hammer on           b  - Bend
p  - pull off            Suffixes for bend
t  - tap                 f  - full bend    h - half bend
ph - pinched harmonic    q  - quarter bend t - tap bend
*  - see comment         ^  - Hold bend    r release bend
x  - Stuccatto           ~  - vibrato bend
,  - slight palm mute    () - ghost note, sustained note
"  - tremolo note        <> - Trill


Riff A
Clean
E||-------------------------------------|
B||-------------------------------------|
G||----------------------------6--------|
D||-------2--------5--------7-----7-----|
A||----2--------5--------7-----------7--|
E||-0--------3--------5-----------------|


Riff B-1
|-----------------|
|-----------------|
|--5--------------|
|--5--5--2--2--2--|
|--3--5--2--2--2--|
|-----3--0--0--0--|

Riff B-2
|-----------------------------------|
|-----------------------------------|
|--------------------------5--------|
|--------------------------5--5--2--|
|--2--2--2--2--2--2--2--2--3--5--2--|
|--0--0--0--0--0--0--0--0-----3--0--|
pm x  x  x  x  x  x  x  x

Riff C
|-----------------------------|
|-----------------------------|
|-------7----10--9--7---------|
|--2----7----10--9--7-(2)--2--|
|--2----5----8---7--5-(2)--2--|
|--0------------------(0)--0--|


Riff D
|--------------------------------------|
|--------------------------------------|
|--------------------5--5--5--7--2--4--|
|--2--2--2--7--4--5--5--5--5--7--2--4--|
|--2--2--2--7--4--5--3--3--3--5--0--2--|
|--0--0--0--5--2--3--------------------|

Riff E
|--------------------------------------|
|--------------------------------------|
|--------------------------------------|
|--2--2--2--5--5--5--7--7--7--7--7--7--|
|--2--2--2--5--5--5--7--7--7--7--7--7--|
|--0--0--0--3--3--3--5--5--5--5--5--5--|
Pm x  x  x  x  x  x  x  x  x  x  x  x

Riff F-1
|--------------------------------------------------|
|--------------------------------------------------|
|-----------------------------------5--5--5--5--5--|
|--------2--------7--------5--------5--5--5--5--5--|
|--------2--------7--------5--------3--3--3--3--3--|
|--0--0--0--0--0--5--0--0--3--0--0-----------------|
Pm x  x     x  x     x  x     x  x

Riff F-2
|----------------|
|----------------|
|-----------5----|
|--2--7--5--5----|
|--2--7--5--3----|
|--0--5--3-------|


         end
Fill     clean
|-----| |-----||
|-----| |-----||
|-----| |-----||
|--2--| |-----||
|--2--| |-----||
|--0--| |--0--||


Each distortion part ends with the fill wich is just an E cord.
At the end of the song after a rest it ands with an E.
The onley thing missing in this tab is a litle solo,wich is real soft
at the back ground of the track. It is hard to hear what he playes.
If any one has any tips for this tab, please mail me.
For timing listen to the song.

The song is played in the next order:

riff A   x 12
riff B-1 x 4
riff B-2 x 6
riff C   x 4
riff D   x 4
fill     x 1
riff A   x 4
riff E   x 4
riff D   x 4
riff F-1 x 8
riff F-2 x 6 (eventualy with solo)
fill     x 1
riff A   x 4
riff E   x 4
riff D   x 6
fill     x 1
riff A   x 6
end      x 1

  Visit MetalTabs.com for more metal tablature

bottom separator

Contact Us | Privacy Policy | Disclaimer
Copyright © 2001-2014 MetalTabs.com. All Rights Reserved.