top separator

Home

Forum

What's New

Submit a Tab

FAQ

Links

Contact Us

Link to Us

MetalTabs.com logo

Bands

0-9

A

B

C

D

E

F

G

H

I

J

K

L

M

N

O

P

Q

R

S

T

U

V

W

X

Y

Z

Search

What

Where
 

Severe Torture - "Butchery Of The Soul" Guitar Tab

Plain Text Version
More Severe Torture Tabs

Hits: 4952
Rated: 5.00 out of 5 (1 vote)
Updated: 2004-08-05 10:09:02

 

By:

Straker

sendpm.gif

email.gif

Important note
This tab is available online because we obtained explicit permission from Severe Torture or their label.


#----------------------------------PLEASE NOTE---------------------------------#
#This file is the author's own work and represents their interpretation of the #
#song. You may only use this file for private study, scholarship, or research. #
#Unless specified otherwise, this is NOT an official tab from the band members.#
#------------------------------------------------------------------------------#

  Visit MetalTabs.com for more metal tablature
  
Band:  (Severe Torture)
Album: (Feasting On Blood)
Song:  (Butchery of the Soul)

Copyright (c)  (Hammerheart records) (2000)
Version 1.0 -

Transcribed By: (Straker)
Email:          (Straker666@hotmail.com)


.  - palm mute           /  - slide up to
\  - slide down to       ~  - vibrato
h  - hammer on           b  - Bend
p  - pull off                Suffixes for bend
t  - tap                 f  - full bend    h - half bend
"  -  pinched harmonic   q  - quarter bend t - tap bend
co - see comment         ^  - Hold bend    r release bend
x  - Stuccatto           ~  - vibrato bend
,  - slight palm mute    () - ghost note, sustained note
"  - tremolo note        <t> - Trill

Tunning D


 Riff 1        X4                               1st ending     2nd ending
|------------------------------------|------------|-------------------|
|------------------------------------|------------|-------------------|
|------------------------------------|------------|-------------------|
|------------------------------------|------------|-------2p1-1-------|
|-222-222----------------222-222-----|------------|-4p3-1-------------|
|-000-000-2-1-0000000000-000-000-3-1-|-1111133333-|-------------------|
  ... ... . .            ... ... . .

 Riff 2 X10                   Riff 3 X4
|--------------------------| |--------|
|--------------------------| |--------|
|--------------------------| |--------|
|-----------------55556666-| |--------|
|---------44443333---------| |-543232-|
|-55553333-----------------| |-321010-|
  ........                       ......

Paly Riff 2 X8 (Guitar 2 plays this the last 4 times)
|--------------------------|
|--------------------------|
|-----------------11112222-|
|--------------------------|
|---------44443333---------|
|-55553333-----------------|
  ........

Play Riff 3 X4

 Riff 4 X10
|------------------|
|------------------|
|------------------|
|-----"-------""---|
|-----2-------65---|
|-0000----0000-----|
  ....    ....

Riff 5 X5 - This riff is all over the place, so listen to the song
            for the timing.
|------------------------------------------------------------------|
|------------------------------------------------------------------|
|------------------------------------------------------------------|
|---------------------------------------------------------<2t3>----|
|-23522222222222-34/5522222222222-----52222222222-33/5-2-----------|
|-01300000000000-12/3300000000000-023030000000000-11/30-00---------|
  .............. .   ...........  .... .......... .   .

Play Riff 1 X4

 Riff 6 guitar 1 X2
|-----------------------------------|
|-----------------------------------|
|-----------------------------------|
|-----------------------------------|
|-----------------------------------|
|-3-1-0-3-0--3-2-0-4-3-0-3-2-0-4-3--|
  . . . . .  . . . . . . . . . . .

 Riff 6b both guitars X8
|----------------------------------|
|----------------------------------|
|----------------------------------|
|----------------------------------|
|---------2------------------------|
|-3-1-0-3-0--3-2-0-4-3-0-3-2-0-4-3-|
  . . . .    . . . . . . . . . . .

 Fill
|-------------------------------------------------------------------|
|-------------------------------------------------------------------|
|-------------------------------------------------------------------|
|--------------------------""---------------------------------------|
|------3------3------3-----65---------------------------------------|
|-4443-1-4443-1-4443-1-4443-----------------------------------------|

Play riff 4 X8
Play riff 5 X5
Play riff 1 X2

END

  Visit MetalTabs.com for more metal tablature

bottom separator

Contact Us | Privacy Policy | Disclaimer | Legal Notice
Copyright © 2001-2014 MetalTabs.com. All Rights Reserved.