top separator

Home

Forum

FAQ

Contact Us

Link to Us

MetalTabs.com logo

Bands

0-9

A

B

C

D

E

F

G

H

I

J

K

L

M

N

O

P

Q

R

S

T

U

V

W

X

Y

Z

Therion - "Lemuria" Guitar Tab

Plain Text Version
More Therion Tabs

Hits: 7395
Rated: 4.90 out of 5 (10 votes)
Updated: 2004-08-05 10:11:04

By:


#----------------------------------PLEASE NOTE---------------------------------#
#This file is the author's own work and represents their interpretation of the #
#song. You may only use this file for private study, scholarship, or research. #
#Unless specified otherwise, this is NOT an official tab from the band members.#
#------------------------------------------------------------------------------#

  Visit MetalTabs.com for more metal tablature
  
Title: Lemuria
Artist: Therion
Album: Lemuria/Sirius B
Tab: dead_locked@hotmail.com

EBGDAE
Intro:
|--0--0--------0-----0-------1--1--------1-----1--------|
|--3----3--------3-----3-----3----3--------3-----2------|
|-2------2--------2-----2---2------2--------2-----3---|X2
|-0--------0--------------0-0--------0--------------0-|
|-------------------------------------------------------|
|-------------------------------------------------------|

Verse I: Gtr I&II
|--0--0--------0-----0-------1--1--------1-----1-------|
|--3----3--------3-----3-----3----3--------3-----2-----|
|-2------2--------2-----2---2------2--------2-----3---|
|-0--------0--------------0-0--------0--------------0-|
|------------------------------------------------------|
|------------------------------------------------------|

|--0--0--------0-----0-------0--0--------0-----0-------|
|--1----1--------1-----1-----2----2--------2-----2-----|
|--0------0--------0-----0---2------2--------2-----2--|X2
|--2-------------------------2------------------------|
|--3--------3--------------3-0--------0--------------0-|
|------------------------------------------------------|

Bridge I:
Clean Gtr I
|---1---|---3---|---0---|---1---|
|---3---|---3---|---1---|---3---|
|--2---|---0---|---0---|---2--|
|--0---|---0---|---2---|---0--|X2
|---0---|---2---|---3---|---0---|
|---0---|---3---|---3---|---0---|
Gtr II
|----3-5-3---------3-5-6-6-5-3-3-3-5-3--------|
|--6-------5-6-6-6---------------------6-5-6--|
|-------------------------------------------|X2
|-------------------------------------------|
|---------------------------------------------|
|---------------------------------------------|

Verse II: Gtr I&II
|--0--0--------0-----0-------1--1--------1-----1-------|
|--3----3--------3-----3-----3----3--------3-----2-----|
|-2------2--------2-----2---2------2--------2-----3---|
|-0--------0--------------0-0--------0--------------0-|
|------------------------------------------------------|
|------------------------------------------------------|

|--0--0--------0-----0-------0--0--------0-----0-------|
|--1----1--------1-----1-----2----2--------2-----2-----|
|--0------0--------0-----0---2------2--------2-----2--|X2
|--2-------------------------2------------------------|
|--3--------3--------------3-0--------0--------------0-|
|------------------------------------------------------|

Chorus I:
Clean Gtr I&II
|---1---|---3---|---0---|---1---|
|---3---|---3---|---1---|---3---|
|--2---|---0---|---0---|---2--|
|--0---|---0---|---2---|---0--|X4
|---0---|---2---|---3---|---0---|
|---0---|---3---|---3---|---0---|

Bridge II:
Gtr I&II (Clean)
|--1~-|--0~-|--1~-|--0~-|--1~-|--0~-|--1~-|--0~-|
|--3~-|--3~-|--1~-|--2~-|--3~-|--3~-|--1~-|--2~-|
|--2~-|--2~-|--0~-|--2~-|--2~-|--2~-|--0~-|--2~-|
|--0~-|--0~-|--2~-|--2~-|--0~-|--0~-|--2~-|--2~-|
|--0~-|--0~-|--3~-|--0~-|--0~-|--0~-|--3~-|--0~-|
|--0~-|--0~-|--3~-|--0~-|--0~-|--0~-|--3~-|--0~-|

Chorus II:
Gtr I: Distor
|-----|-----|----------|
|-----|-----|----------|
|----|-----|---------|X4
|-7--|-----|--5--5/7-|
|--5--|--5--|--3--3/5--|
|-----|--3--|----------|
Gtr II: Distor
|---------------------------3-3--------------------|
|--3-5-6-5-3---3-3-3----5-6-----6-5-5-5-6-5-3---3--|
|-----------5--------------------------------5---|X4
|------------------------------------------------|
|--------------------------------------------------|
|--------------------------------------------------|

Bridge III:
Gtr I&II: Distor
|-----|-----|-----|-----|-----|-----|-----|
|-----|-----|-----|-----|-----|-----|-----|
|-----|-----|-----|-----|-----|-----|-----|
|--3--|-----|-----|--7--|--3--|-----|-----|
|--1--|--3--|--7--|--5--|--1--|--3--|--7--|
|-----|--1--|--5--|-----|-----|--1--|--5--|

Gtr I: Distor
|-----|-----|----------|
|-----|-----|----------|
|----|-----|---------|X2
|-7--|-----|--5--5/7-|
|--5--|--5--|--3--3/5--|
|-----|--3--|----------|
Gtr II: Distor
|---------------------------3-3--------------------|
|--3-5-6-5-3---3-3-3----5-6-----6-5-5-5-6-5-3---3--|
|-----------5--------------------------------5---|X2
|------------------------------------------------|
|--------------------------------------------------|
|--------------------------------------------------|
Gtr III: Distor
|----3-5-3---------3-5-6-6-5-3-3-3-5-3--------|
|--6-------5-6-6-6---------------------6-5-6--|
|-------------------------------------------|X2
|-------------------------------------------|
|---------------------------------------------|
|---------------------------------------------|

Gtr I&II: Distor
|-----|-----|----------|  |-----|
|-----|-----|----------|  |-----|
|----|-----|---------|X2|-----|
|-7--|-----|--5--5/7-|  |--7~-|
|--5--|--5--|--3--3/5--|  |--5~-|
|-----|--3--|----------|  |-----|

  Visit MetalTabs.com for more metal tablature

bottom separator

Contact Us | Privacy Policy | Disclaimer
Copyright © 2001-2014 MetalTabs.com. All Rights Reserved.