top separator

Home

Forum

What's New

Submit a Tab

FAQ

Links

Contact Us

Link to Us

MetalTabs.com logo

Bands

0-9

A

B

C

D

E

F

G

H

I

J

K

L

M

N

O

P

Q

R

S

T

U

V

W

X

Y

Z

Search

What

Where
 

Skyclad - "The Antibody Politic" Guitar Tab

Plain Text Version
More Skyclad Tabs

Hits: 3701
Rated: 4.00 out of 5 (1 vote)
Updated: 2004-08-05 10:05:07

 

By:

Darkenelf

sendpm.gif

email.gif

Important note
This tab is available online because we obtained explicit permission from Skyclad or their label.


#----------------------------------PLEASE NOTE---------------------------------#
#This file is the author's own work and represents their interpretation of the #
#song. You may only use this file for private study, scholarship, or research. #
#Unless specified otherwise, this is NOT an official tab from the band members.#
#------------------------------------------------------------------------------#

  Visit MetalTabs.com for more metal tablature
  
Band: Skyclad
Album: Folkémon
Song: The Antibody Politic

Copyright (c)  (Demolition Records) (2000)

Transcribed By: Martijn Wietsma
Email: northerland@yahoo.co.uk


.  - palm mute           /  - slide up to
\  - slide down to       ~  - vibrato
h  - hammer on           b  - Bend
p  - pull off            Suffixes for bend
t  - tap                 f  - full bend    h - half bend
ph - pinched harmonic    q  - quarter bend t - tap bend
*  - see comment         ^  - Hold bend    r release bend
x  - Stuccatto           ~  - vibrato bend
,  - slight palm mute    () - ghost note, sustained note
"  - tremolo note        <> - Trill

Tunning E A D G B E

riff A
|-------------------------------------------------------------------|
|-------------------------------------------------------------------|
|-------------------------------------------------------------------|(2x)
|-------------------------------------------------------------------|
|---2------2h3--5-3p2-----------------------------------------------|
|-0---3h5-------------5p3-------------------------------------------|

riff B (0:07)
|-------------------------------------------------------------------|
|-------------------------------------------------------------------|
|-------------------------------------------------------------------|(1x)
|---2------2h3-5-3p2------------------------------------------------|
|-0---3h5------------5p3--------------------------------------------|
|-------------------------------------------------------------------|

repeat riff A 1x

repeat riff A 2x (0:12)
repeat riff B 1x (0:18)
repeat riff A 1x

repeat riff A 2x
repeat riff B 1x
repeat riff A 1x

riff C (0:34)
|-------------------------------------------------------------------|
|-------------------------------------------------------------------|
|-------------------------------------------------------------------|(1x)
|---------------------------2~~-------------------------------------|
|-22-22-22-22-22-22--2h-5---2---------------------------------------|
|-00-00-00-00-00-00--0--3---0---------------------------------------|
  .. .. .. .. .. ..  .

(bass riff)

repeat riff A 4x (0:53)

riff D (1:04)
|-------------------------------------------------------------------|
|-------------------------------------------------------------------|
|-------------7---------------------------7-------------------------|(2x)
|-9-----7-----5-55--5--7------9-----7-----5-55-5h-------------------|
|-7-77--5-55--------3--5------7-77--5-55----------8p7h8-------------|
|-------------------------------------------------------------------|

riff E (1:16)
|-------------------------------------------------------------------|
|-------------------------------------------------------------------|
|-------------------------------------------------------------------|
|--------77777---------77777----------------------------------------|
|-99999--55555--99999--55555----------------------------------------|
|-77777---------77777-----------------------------------------------|

repeat riff D 2x (1:21)
repeat riff C 1x (1:30)

(bass riff)

riff F (1:49)
|-------------------------------------------------------------------|
|-------------------------------------------------------------------|
|-------------------------------------------------------------------|(4x)
|-2---7---5---4-----------------------------------------------------|
|-2---5---3---2-5---------------------------------------------------|
|-0-------------3---------------------------------------------------|

repeat riff A 4x (2:22)
repeat riff D 2x (2:32)
repeat riff E 1x (2:43)
repeat riff D 2x (2:48)
repeat riff C 1x (2:59)
repeat riff A 2x (3:02)
repeat riff B 1x
repeat riff A 1x

(violin riff)

(end of song)

  Visit MetalTabs.com for more metal tablature

bottom separator

Contact Us | Privacy Policy | Disclaimer | Legal Notice
Copyright © 2001-2014 MetalTabs.com. All Rights Reserved.