top separator

Home

Forum

What's New

Submit a Tab

FAQ

Links

Contact Us

Link to Us

MetalTabs.com logo

Bands

0-9

A

B

C

D

E

F

G

H

I

J

K

L

M

N

O

P

Q

R

S

T

U

V

W

X

Y

Z

Search

What

Where
 

Skyclad - "Think Back and Lie of England" Guitar Tab

Plain Text Version
More Skyclad Tabs

Hits: 4013
Rated: 4.00 out of 5 (2 votes)
Updated: 2004-08-05 10:04:58

 

By:

Darkenelf

sendpm.gif

email.gif

Important note
This tab is available online because we obtained explicit permission from Skyclad or their label.


#----------------------------------PLEASE NOTE---------------------------------#
#This file is the author's own work and represents their interpretation of the #
#song. You may only use this file for private study, scholarship, or research. #
#Unless specified otherwise, this is NOT an official tab from the band members.#
#------------------------------------------------------------------------------#

  Visit MetalTabs.com for more metal tablature
  
Band: Skyclad
Album: Folkémon
Song: Think back and lie of England

Copyright (c)  (Demolition Records) (2000)
Version 1.0 - (24-07-2004)

Transcribed By: Martijn Wietsma
Email: northerland@yahoo.co.uk


.  - palm mute           /  - slide up to
\  - slide down to       ~  - vibrato
h  - hammer on           b  - Bend
p  - pull off            Suffixes for bend
t  - tap                 f  - full bend    h - half bend
ph - pinched harmonic    q  - quarter bend t - tap bend
*  - see comment         ^  - Hold bend    r release bend
x  - Stuccatto           ~  - vibrato bend
,  - slight palm mute    () - ghost note, sustained note
"  - tremolo note        <> - Trill

Tunning E A D G B E

riff A
|-------------------------------------------------------------------|
|-------------------------------------------------------------------|
|------4------------------------------------------------------------|(1x)
|----4---4--5p4-2h4-2h----------------------------------------------|
|----------------------5--4h----------------------------------------|
|-2--------------------------5--------------------------------------|

riff B
|-------------------------------------------------------------------|
|-------------------------------------------------------------------|
|------4------------------------------------------------------------|(1x)
|----4---4--5p4-2h4--7-7--------------------------------------------|
|--------------------5-5--------------------------------------------|
|-2-----------------------------------------------------------------|

repeat riff A 1x
repeat riff B 1x
repeat riff A 1x
repeat riff B 1x
repeat riff A 1x
repeat riff B 1x

riff C (0:22)
|--------7-(5)---------------------7-(5)----------------------------|
|-7-5--7-------7-5-7--------7-5--7-------7-5-7----------------------|
|-------------------------------------------------------------------|(1x)
|-------------------------------------------------------------------|
|-------------------------------------------------------------------|
|-------------------------------------------------------------------|

riff D (0:32)
|-------------------------------------------------------------------|
|-------------------------------------------------------------------|
|-------------------------------------------------------------------|(4x)
|-4---4---4---4-6-7-6-----4---4---4---4-4-7-7-----------------------|
|-2-2-2-2-2---2-4-5-4-----2-2-2-2-2---2-2-5-5-----------------------|
|-------------------------------------------------------------------|

riff E (0:54)
|-------------------------------------------------------------------|
|-------------------------------------------------------------------|
|-------------------------------------------------------------------|
|---2------------2h---------------2-----2-----------2h--------------|
|-2---5-3-2-3-------5p3p2---2-3-5-----2---5-3-2-3------5p3p2---2----|
|-------------------------5----------------------------------5------|

repeat riff A 1x (1:00)
repeat riff B 1x
repeat riff A 1x
repeat riff B 1x
repeat riff C 1x (1:11)
repeat riff D 4x (1:21)
repeat riff E 1x (1:45)
repeat riff A 1x (1:55)
repeat riff B 1x
repeat riff A 1x
repeat riff B 1x
repeat riff C 1x (2:07)

riff F (chords) (2:17)
|-------------------------------------------------------------------|
|-------------------------------------------------------------------|
|-------------------------------------------------------------------|(8x)
|-------------------------------------------------------------------|
|-3p2---------------------------------------------------------------|
|-----5p3p2--2h3p2h3h5p3p2------------------------------------------|

riff G (solo) (this is how the intro sounds...working on the rest)
|----------------7-6-----------------10-9---------------------------|
|-----------3h5------8-7~--7p5h7h8p7------11-10~--------------------|
|-4~-6h7p6----------------------------------------------------------|
|-------------------------------------------------------------------|
|-------------------------------------------------------------------|
|-------------------------------------------------------------------|

riff H (3:01)
|-------------------------------------------------------------------|
|-------------------------------------------------------------------|
|-------------------------------------------------------------------|
|-4~----------------------------------------------------------------|
|-2-----------------------------------------------------------------|
|-------------------------------------------------------------------|

riff I
|-------------------------------------------------------------------|
|-------------------------------------------------------------------|
|-------------------------------------------------------------------|(2x)
|-4--44----4--44----4--44----4--44----------------------------------|
|-2--22----2--22----2--22----2--22----------------------------------|
|-------------------------------------------------------------------|

repeat riff D 4x (3:06)
repeat riff E 1x (3:28)
repeat riff A 1x (3:34)
repeat riff B 1x
repeat riff A 1x
repeat riff B 1x
repeat riff A 1x
repeat riff B 1x
repeat riff A 1x
repeat riff B 1x
repeat riff C 2x (3:56)

riff J (4:17)
|-------------------------------------------------------------------|
|-------------------------------------------------------------------|
|----------------------------(9)------------------------------------|(2x)
|-9--7-9h10p9-10p9p7--9-7-9------(9)--------------------------------|
|-------------------------------------------------------------------|
|-------------------------------------------------------------------|

(some keyboard)

(end of song)

  Visit MetalTabs.com for more metal tablature

bottom separator

Contact Us | Privacy Policy | Disclaimer | Legal Notice
Copyright © 2001-2014 MetalTabs.com. All Rights Reserved.