top separator

Home

Forum

FAQ

Contact Us

Link to Us

MetalTabs.com logo

Bands

0-9

A

B

C

D

E

F

G

H

I

J

K

L

M

N

O

P

Q

R

S

T

U

V

W

X

Y

Z

Windir - "Morket sin fyrste" Guitar Tab

Plain Text Version
More Windir Tabs

Hits: 5235
Rated: 2.71 out of 5 (7 votes)
Updated: 2004-08-05 10:04:51

By:

Darkenelf


#----------------------------------PLEASE NOTE---------------------------------#
#This file is the author's own work and represents their interpretation of the #
#song. You may only use this file for private study, scholarship, or research. #
#Unless specified otherwise, this is NOT an official tab from the band members.#
#------------------------------------------------------------------------------#

  Visit MetalTabs.com for more metal tablature
  
Band: Windir
Album: Sˇknardalr
Song: Morket sin fyrste

Copyright (c)  (Tabu Recordings) (1997)
Version 1.0 - (24-07-2004)

Transcribed By: Martijn Wietsma
Email: northerland@yahoo.co.uk


.  - palm mute           /  - slide up to
\  - slide down to       ~  - vibrato
h  - hammer on           b  - Bend
p  - pull off            Suffixes for bend
t  - tap                 f  - full bend    h - half bend
ph - pinched harmonic    q  - quarter bend t - tap bend
*  - see comment         ^  - Hold bend    r release bend
x  - Stuccatto           ~  - vibrato bend
,  - slight palm mute    () - ghost note, sustained note
"  - tremolo note        <> - Trill

Tunning E A D G B E

riff A
|-------------------------------------------------------------------|
|-------------------------------------------------------------------|
|-------------------------------------------------------------------|(8x)
|-------5---5-------------------------------------------------------|
|-7---7-3---3-9~~---9-----9-----9-----------------------------------|
|-5---5-------7-----7-777-7-777-7-----------------------------------|
                      ...   ...
riff B (0:55) (chords)
|-------------------------------------------------------------------|
|-------------------------------------------------------------------|
|-------5---5-------------------------------------------------------|(8x)
|-7---7-3---3-9~~---9-----9-----9-----------------------------------|
|-5---5-------7-----7-777-7-777-7-----------------------------------|
|-------------------------------------------------------------------|
                      ...   ...
riff C (0:55) (lead)
|-------------------------------------------------------------------|
|-------------------------------------5-----------------------------|
|-2~-------2~-------2~-------2~-4-5-7-------------------------------|(8x)
|----5-2------5-2------5-2------------------------------------------|
|-------------------------------------------------------------------|
|-------------------------------------------------------------------|

riff D (1:51)
|-------------------------------------------------------------------|
|-------------------------------------------------------------------|
|-------------------------------------------------------------------|(4x)
|-------------------------------------------------------------------|
|-7--------333333---------9-----9-----------------------------------|
|-5-555555--------777777--7-777-7-777-------------------------------|
    ...... ...... ......    ...   ...

riff E (2:18)
|-------------------------------------------------------------------|
|-------------------------------------------------------------------|
|----------55555555-------------------------------------------------|(8x)
|-77777777-33333333-99999999-99999999-------------------------------|
|-55555555----------77777777-77777777-------------------------------|
|-------------------------------------------------------------------|

repeat riff C 8x (2:18)

riff F (3:13)
|-------------------------------------------------------------------|
|-------------------------------------------------------------------|
|-9----7----5-------------------------------------------------------|(4x)
|-7----5----3----2-3-5-3--------------------------------------------|
|-------------------------------------------------------------------|
|-------------------------------------------------------------------|

repeat riff A 4x (3:40)
repeat riff B+C 4x
repeat riff F 4x (4:14)

riff G (4:48)
|-------------------------------------------------------------------|
|-------------------------------------------------------------------|
|-77777777-1010101010101010-99999999--------------------------------|
|-55555555--8-8-8-8-8-8-8-8-77777777-77777777-----------------------|
|------------------------------------55555555-----------------------|
|-------------------------------------------------------------------|

|-------------------------------------------------------------------|
|-------------------------------------------------------------------|
|-77777777-1010101010101010-99999999--------------------------------|
|-55555555--8-8-8-8-8-8-8-8-77777777--------------------------------|
|-------------------------------------------------------------------|
|-------------------------------------------------------------------|

riff H (5:02)
|-------------------------------------------------------------------|
|-------------------------------------------------------------------|
|-55555555-99999999-77777777----------------------------------------|
|-33333333-77777777-55555555-55555555-------------------------------|
|----------------------------33333333-------------------------------|
|-------------------------------------------------------------------|

|-------------------------------------------------------------------|
|-------------------------------------------------------------------|
|-55555555-99999999-77777777----------------------------------------|
|-33333333-77777777-55555555----------------------------------------|
|-------------------------------------------------------------------|
|-------------------------------------------------------------------|

riff I (5:14)
|-------------------------------------------------------------------|
|-------------------------------------------------------------------|
|-7----10----9--------------7----10----9----------------------------|
|-5-----8----7----7---------5-----8----7----------------------------|
|-----------------5-------------------------------------------------|
|-------------------------------------------------------------------|

riff J (5:28)
|-------------------------------------------------------------------|
|-------------------------------------------------------------------|
|-5----9----7---------------5----9----7-----------------------------|
|-3----7----5----5----------3----7----5-----------------------------|
|----------------3--------------------------------------------------|
|-------------------------------------------------------------------|

riff K (5:42)
|-------------------------------------------------------------------|
|-------------------------------------------------------------------|
|-------------------------------------------------------------------|(2x)
|-2222-5555-4444----------2222-5555-4444-4444-----------------------|
|-0000-3333-2222-6666-----0000-3333-2222-2222-----------------------|
|----------------4444-----------------------------------------------|

riff L (5:57)
|-------------------------------------------------------------------|
|-------------------------------------------------------------------|
|-------------------------------------------------------------------|(4x)
|-2----5----4-------------2----5----4~------------------------------|
|-0----3----2----6--------0----3----2-------------------------------|
|----------------4--------------------------------------------------|

repeat riff K 2x (6:10)
repeat riff L 4x (6:23)
repeat riff K 2x (6:37)
repeat riff L 4x (6:51)
repeat riff K 2x (7:04)

riff M (7:18)
|-------------------------------------------------------------------|
|-------------------------------------------------------------------|
|-------------------------------------------------------------------|
|-------------------------------------------------------------------|
|-7~----------------------------------------------------------------|
|-5-----------------------------------------------------------------|

(end of song)

  Visit MetalTabs.com for more metal tablature

bottom separator

Contact Us | Privacy Policy | Disclaimer
Copyright © 2001-2014 MetalTabs.com. All Rights Reserved.