top separator

Home

Forum

What's New

Submit a Tab

FAQ

Links

Contact Us

Link to Us

MetalTabs.com logo

Bands

0-9

A

B

C

D

E

F

G

H

I

J

K

L

M

N

O

P

Q

R

S

T

U

V

W

X

Y

Z

Search

What

Where
 

To/Die/For - "(I Just) Died In Your Arms (CUTTING CREW cover)" Guitar Tab

Plain Text Version
More To/Die/For Tabs

Hits: 12856
Rated: 5.00 out of 5 (6 votes)
Updated: 2004-08-05 10:03:12

 

By:

sendpm.gif

email.gif

Important note
This tab is available online because we obtained explicit permission from To/Die/For or their label.


#----------------------------------PLEASE NOTE---------------------------------#
#This file is the author's own work and represents their interpretation of the #
#song. You may only use this file for private study, scholarship, or research. #
#Unless specified otherwise, this is NOT an official tab from the band members.#
#------------------------------------------------------------------------------#

  Visit MetalTabs.com for more metal tablature
  
Band:  To/Die/For
Album: Jaded
Song:  (I Just) Died In Your Arms


Transcribed By: Heitor Martins
Email:          heitor_shaman@hotmail.com


.  - palm mute           /  - slide up to
\  - slide down to       ~  - vibrato
h  - hammer on           b  - Bend
p  - pull off            Suffixes for bend
t  - tap                 f  - full bend    h - half bend
ph - pinched harmonic    q  - quarter bend t - tap bend
*  - see comment         ^  - Hold bend    r release bend
x  - Stuccatto           ~  - vibrato bend
,  - slight palm mute    () - ghost note, sustained note
"  - tremolo note        <> - Trill

This only Lead Guitar(Gt.1), not have the rhythm guitar(Gt.2)

Standard E Tunning (E A D G B E)


Gt. 1
(00:30)
e||----------5~~-----------|-------5---7------------|
B||------------------------|--------------7b8~------|
G||-4--6--7----------------|-6--7-------------------|
D||------------------------|------------------------|
A||------------------------|------------------------|
E||------------------------|------------------------|

Gt. 1
(00:42)
e||----------5-------------|
B||------------------------|
G||----6--7----------------|
D||------------------------|
A||------------------------|
E||------------------------|

Gt. 1
(00:49)
e||-------5---7------------|
B||--------------7b8~------|
G||-6--7-------------------|
D||------------------------|
A||------------------------|
E||------------------------|

Gt. 1
(00:58)
e||----------5~~-----------|
B||------------------------|
G||----6--7----------------|
D||------------------------|
A||------------------------|
E||------------------------|

Gt. 1
(01:05)
e||-------5---7------------|
B||--------------7b8~~-----|
G||-6--7-------------------|
D||------------------------|
A||------------------------|
E||------------------------|

Gt. 1
(01:14)                        (01:16)
(BASS)                         (GUITAR, Gt. 1)
e||----------------------------||------------------------|
B||----------------------------||------------------------|
G||----------------------------||-------7--6--4----------|
D||----------------------------||----9-------------------|
A||-9--7--9--7--9--------------||-7----------------------|
E||----------------10--9--7----||------------------------|

Gt. 1
(01:30)                        (01:32)
e||----------------------------||------------------------|
B||----------------------------||------------------------|
G||----------------------------||-------7--6--4----------|
D||----------------------------||----9-------------------|
A||-9--7--9--7--9--------------||-7----------------------|
E||----------------10--9--7----||------------------------|

Gt. 1
(01:39)
e||----------------------------------|
B||-7-7------------------------------|
G||-----7-7-9-9----------------------|
D||-------------7-7-9-9-----7--------|
A||---------------------7-7---10-9-7-|
E||----------------------------------|

Gt. 1
(01:43)
e||-7-----7--7----------------|--------------------------|
B||-7-----7--7----------------|--------------------------|
G||-9-----9--7---9A.H~~~~-----|--////PICK SLIDE///-------|
D||-9-----9--7----------------|--////PICK SLIDE///-------|
A||-7-----7--7----------------|--////PICK SLIDE///-------|
E||-0----0--------------------|--------------------------|

Gt. 1
(01:55)
e||----------5-------------|
B||------------------------|
G||----6--7----------------|
D||------------------------|
A||------------------------|
E||------------------------|

Gt. 1
(02:03)
e||-------5---7------------|
B||--------------7b8~------|
G||-6--7-------------------|
D||------------------------|
A||------------------------|
E||------------------------|

Gt. 1
(02:06)                                  (02:10)
e||-7-7------------------------------||----------5-------------|
B||-----7-7-9-9----------------------||------------------------|
G||-------------7-7-9-9--------------||----6--7----------------|
D||---------------------7-7-9-9------||------------------------|
A||-----------------------------7-7--||------------------------|
E||----------------------------------||------------------------|

Gt. 1
(02:12)
e||--------------------------|-7-7----------------------------------|
B||-7-7----------------------|-----7-7-9-9--------------------------|
G||-----7-7-9-9--------------|-------------7-7-9-9------------------|
D||-------------7-7-9-9------|---------------------7-7-9-9----------|
A||--------------------------|-----------------------------7-7-9-9--|
E||--------------------------|--------------------------------------|

Gt. 1
(02:08)
e||-------5---7------------|
B||--------------7b8~------|
G||-6--7-------------------|
D||------------------------|
A||------------------------|
E||------------------------|

Gt. 1
(02:28)                        (02:30)
e||----------------------------||------------------------|
B||----------------------------||-------------7b8--------|
G||----------------------------||-------7--9-------------|
D||----------------------------||----9-------------------|
A||-9--7--9--7--9--------------||-7----------------------|
E||----------------10--9--7----||------------------------|

Gt. 1
(02:37)
e||------------------------|
B||------------------------|
G||-------7--6--4----------|
D||----9-------------------|
A||-7----------------------|
E||------------------------|

Gt. 1
(02:43)                        (02:45)
e||----------------------------||------------------------|
B||----------------------------||------------------------|
G||----------------------------||-------7--6--4----------|
D||----------------------------||----9-------------------|
A||-9--7--9--7--9--------------||-7----------------------|
E||----------------10--9--7----||------------------------|

SOLO
Gt. 1
(03:08)
e||--------------------------------------|
B||--------------------------------------|
G||--------------------------------------|
D||--------------------------------------|
A||--------------------------------------|
E||-12b14-(12)-10-12-14--15-14--10-12~~--|

Gt. 1
(03:14)
e||----------------------------------------|
B||----------------------------------------|
G||-17-19----------------------------------|
D||-------17-19-15-17----------------------|
A||-------------------15-17----------------|
E||---------------------------17b(19)~~~~--|

Gt. 1
(03:16)
e||---------------------------------------------------------|
B||---------------------------------------------------------|
G||----------------------------19-17-16----------17---------|
D||-------------------19-17-16----------17-16-15----14~~----|
A||----------19-17-15---------------------------------------|
E||-19-17-15------------------------------------------------|

Gt. 1
(03:20)
e||-----------------------|
B||-------15--------------|
G||-14-16----18-16--14-16-|
D||-----------------------|
A||-----------------------|
E||-----------------------|
END SOLO

Gt. 1
(03:44)                        (03:46)
e||----------------------------||------------------------|
B||----------------------------||------------------------|
G||----------------------------||-------7--6--4----------|
D||----------------------------||----9-------------------|
A||-9--7--9--7--9--------------||-7----------------------|
E||----------------10--9--7----||------------------------|

Gt. 1
(03:54)
e||-------------------------------------|
B||-------------------------------------|
G||-------------------------------------|
D||-9b11-(9)-7-9-11--12-11-7-9-9A.H~~~~~|
A||-------------------------------------|
E||-------------------------------------|

Gt. 1
(04:00)            (04:01)      (04:03)
e||----------------------------||----------------------|
B||----------------------------||----------------------|
G||------------------7-7--7-6-4||----------------------|
D||----------------9-----------||-9-11-12-11--7-9~-----|
A||-9--7--9--7--9--------------||----------------------|
E||----------------(10--9--7)--||----------------------|

Gt. 1
(04:09)                          (04:17)
e||-9b10(9)-9-10-12-10--10-9~---||-9b10(9)-9-10-12-10--10-5~---|
B||-----------------------------||-----------------------------|
G||-----------------------------||-----------------------------|
D||-----------------------------||-----------------------------|
A||-----------------------------||-----------------------------|
E||-----------------------------||-----------------------------|

...END...

  Visit MetalTabs.com for more metal tablature

bottom separator

Contact Us | Privacy Policy | Disclaimer | Legal Notice
Copyright © 2001-2014 MetalTabs.com. All Rights Reserved.