top separator

Home

Forum

What's New

Submit a Tab

FAQ

Links

Contact Us

Link to Us

MetalTabs.com logo

Bands

0-9

A

B

C

D

E

F

G

H

I

J

K

L

M

N

O

P

Q

R

S

T

U

V

W

X

Y

Z

Search

What

Where
 

At The Gates - "The Flames of the End" Guitar Tab

Plain Text Version
More At The Gates Tabs

Hits: 5372
Rated: 3.00 out of 5 (2 votes)
Updated: 2004-08-05 08:53:02

 

By:

sendpm.gif

email.gif

Important note
This tab is available online because we obtained explicit permission from At The Gates or their label.


#----------------------------------PLEASE NOTE---------------------------------#
#This file is the author's own work and represents their interpretation of the #
#song. You may only use this file for private study, scholarship, or research. #
#Unless specified otherwise, this is NOT an official tab from the band members.#
#------------------------------------------------------------------------------#

  Visit MetalTabs.com for more metal tablature
  
-At The Gates
Song:The Flames of the End
Album: Slaughter of the Soul
Earache Records (c)
Transcribed by: Felipe M.
murderofsociety@yahoo.com


Drop B tuning (2.5 steps down)

Guitar Legend:
               ~ Let it ring
               * Harmonic
              /\ Pick Scrape

Very distorted Guitars

Begin 1:30-1:41
1]---------------------------------------
2]---------------------------------------
3]---------------------------------------
4]--7-7---7-5----5-5---7-4---------------
5]--7-7---7-5----5-5---7-4---------------
6]--5-5---5-3----3-3---5-2---------------

Then again 1:55-2:06                      Optional
1]---------------------------------------||-----------------------------
2]---------------------------------------||-----------------------------
3]---------------------------------------||-----------------------------
4]--7-7---7-5----5-5---7-4---------------||-2~~~~~~~~~------------------
5]--7-7---7-5----5-5---7-4---------------||-2~~~~~~~~~------------------
6]--5-5---5-3----3-3---5-2---------------||-0~~~~~~~~~------------------

Optional (ending- you can just do some pick scrapes and harmonics)
1]---------------------------------------------||
2]-5*~~----------------------------------------||
3]----------//\\-------------------------------||
4]--------------//\\---------------------------||
5]------------------//\\-----------------------||
6]----------------------//\\-------------------||

AT THE GATES!!!!!

  Visit MetalTabs.com for more metal tablature

bottom separator

Contact Us | Privacy Policy | Disclaimer | Legal Notice
Copyright © 2001-2014 MetalTabs.com. All Rights Reserved.