top separator

Home

Forum

What's New

Submit a Tab

FAQ

Links

Contact Us

Link to Us

MetalTabs.com logo

Bands

0-9

A

B

C

D

E

F

G

H

I

J

K

L

M

N

O

P

Q

R

S

T

U

V

W

X

Y

Z

Search

What

Where
 

Skyclad - "The One Piece Puzzle" Guitar Tab

Plain Text Version
More Skyclad Tabs

Hits: 5651
Rated: 4.33 out of 5 (3 votes)
Updated: 2004-08-05 08:13:16

 

By:

Darkenelf

sendpm.gif

email.gif

Important note
This tab is available online because we obtained explicit permission from Skyclad or their label.


#----------------------------------PLEASE NOTE---------------------------------#
#This file is the author's own work and represents their interpretation of the #
#song. You may only use this file for private study, scholarship, or research. #
#Unless specified otherwise, this is NOT an official tab from the band members.#
#------------------------------------------------------------------------------#

  Visit MetalTabs.com for more metal tablature
  
Band: Skyclad
Album: Prince of the Poverty Line
Song: The One Piece Puzzle

Copyright (c)  (Noise Records) (1994)
Version 1.0 - (26-07-2004)

Transcribed By: Martijn Wietsma
Email: northerland@yahoo.co.uk


.  - palm mute           /  - slide up to
\  - slide down to       ~  - vibrato
h  - hammer on           b  - Bend
p  - pull off            Suffixes for bend
t  - tap                 f  - full bend    h - half bend
ph - pinched harmonic    q  - quarter bend t - tap bend
*  - see comment         ^  - Hold bend    r release bend
x  - Stuccatto           ~  - vibrato bend
,  - slight palm mute    () - ghost note, sustained note
"  - tremolo note        <> - Trill

Tunning E A D G B E

riff A (acoustic)
|-------------------------------------------------------------------|
|-------8-6-5-----5---5-6-------------------------------------------|
|----7--------7-----7-----------------------------------------------|(1x)
|-------------------------------------------------------------------|
|-5-----------------------------------------------------------------|
|-------------------------------------------------------------------|

riff B (acoustic)
|-------------------------------------------------------------------|
|-------------------------------------------------------------------|
|-------------------------------------------------------------------|(1x)
|-------5-----------------------------------------------------------|
|-5-7-8---8-7---7---------------------------------------------------|
|-------------8-----------------------------------------------------|

repeat riff A 1x
repeat riff B 1x
repeat riff A 1x

riff C (acoustic) (0:18)
|-------------------------------------------------------------------|
|-------------------------------------------------------------------|
|-------------------------------------------------------------------|(1x)
|-8-7-5----5h-------------------------------------------------------|
|-------8-----8-7---7-----------------------------------------------|
|-----------------8-------------------------------------------------|

repeat riff A 1x
repeat riff B 1x

riff D (acoustic) (0:27)
|-------------------------------------------------------------------|
|------8-6-5----8-6-5--6-5------------------------------------------|
|----7-------7-------------7----------------------------------------|(1x)
|-------------------------------------------------------------------|
|-5-----------------------------------------------------------------|
|-------------------------------------------------------------------|

riff E (acoustic)
|-------------------------------------------------------------------|
|-----------6-5----6-5---3------------------------------------------|
|----5----------5------5--------------------------------------------|(1x)
|-------------------------------------------------------------------|
|-3-----3-----------------------------------------------------------|
|-------------------------------------------------------------------|

repeat riff D 1x
repeat riff E 1x
repeat riff D 1x
repeat riff E 1x
repeat riff D 1x
repeat riff E 1x

repeat riff A 1x (1:03)
repeat riff B 1x
repeat riff A 1x
repeat riff B 1x
repeat riff A 1x
repeat riff C 1x
repeat riff A 1x
repeat riff B 1x

riff F (distortion) (1:30)
|-------------------------------------------------------------------|
|-------------------------------------------------------------------|
|-------------------------------------------------------------------|(4x)
|-7---7---777-7-777-------------------------------------------------|
|-5---5---555-5-555--8-8-------5-5----------------------------------|
|--------------------6-6-(666)-3-3--3-1-0---------------------------|

riff G (2:05)
|-------------------------------------------------------------------|
|----------6------------------6-------------------------------------|
|--------7---7--------------7---7-----------------------------------|
|-7----7-------(7)---7----7-------(7)-------------------------------|
|-5--5---------------5--5-------------------------------------------|
|-------------------------------------------------------------------|

riff H
|-------------------------------------------------------------------|
|-------------------------------------------------------------------|
|-------------------------------------------------------------------|
|-------5-----------------------------------------------------------|
|-5-7-8---8-7---7---------------------------------------------------|
|-------------8-----------------------------------------------------|

repeat riff G 1x

riff I
|-------------------------------------------------------------------|
|-------------------------------------------------------------------|
|-------------------------------------------------------------------|
|-------5-----------7~----------------------------------------------|
|-5-7-8---8-7---7---5-----------------------------------------------|
|-------------8-----------------------------------------------------|

repeat riff F 2x

riff J (2:46)
|-------------------------------------------------------------------|
|-------------------------------------------------------------------|
|-------------------------------------------------------------------|
|---------5--------------------5------------------------------------|
|-7---7---3--3---------7---7---3--3---3-----------------------------|
|-5---5--------6-3-----5---5--------6-------------------------------|

riff K (2:55)
|-------------------------------------------------------------------|
|-------------------------------------------------------------------|
|-------------------------------------------------------------------|(2x)
|---------5-5-------------6-6---------------------------------------|
|-7---7-7---------8---8-8-------------------------------------------|
|-5---5-----------6---6---------------------------------------------|

repeat riff A 1x (3:12)
repeat riff B 1x
repeat riff A 1x
repeat riff B 1x

riff L (3:36)
|-------------------------------------------------------------------|
|-------------------------------------------------------------------|
|-------------------------------------------------------------------|
|-------------------------------------------------------------------|
|-5--------5--------3--------3--------------------------------------|
|-3-33-33--3-33-33--1-11-11--1-11-11--1-0-1-------------------------|
    .. ..    .. ..    .. ..    .. ..

|-------------------------------------------------------------------|
|-------------------------------------------------------------------|
|-------------------------------------------------------------------|
|-7~---7~---777-77-77-777------7~---7~---777-77-77-777--------------|
|-5----5----555-55-55-555------5----5----555-55-55-555--------------|
|-------------------------------------------------------------------|

riff M (3:53)
|-------------------------------------------------------------------|
|-------------------------------------------------------------------|
|-------------------------------------------------------------------|
|-------------------------------------------------------------------|
|-5--------5--------3--------3--------------------------------------|
|-3-33-33--3-33-33--1-11-11--1-11-11--1-0-1-------------------------|
    .. ..    .. ..    .. ..    .. ..

|-------------------------------------------------------------------|
|-------------------------------------------------------------------|
|-------------------------------------------------------------------|
|-5--------5--------3--------3--------------------------------------|
|-3-33-33--3-33-33--1-11-11--1-11-11--------------------------------|
|-------------------------------------------------------------------|
    .. ..    .. ..    .. ..    .. ..

|-------------------------------------------------------------------|
|-------------------------------------------------------------------|
|-------------------------------------------------------------------|
|-------------------------------------------------------------------|
|-5--------5--------3--------3--------------------------------------|
|-3-33-33--3-33-33--1-11-11--1-11-11--1-0-1-------------------------|
    .. ..    .. ..    .. ..    .. ..

repeat riff K 2x (4:06)

riff N (4:24)
|-------------------------------------------------------------------|
|-------------------------------------------------------------------|
|-------------------------------------------------------------------|
|-7~----------------------------------------------------------------|
|-5-----------------------------------------------------------------|
|-------------------------------------------------------------------|

repeat riff F 2x (4:35)
repeat riff J 1x (4:51)
repeat riff A 1x (5:02)
repeat riff B 1x
repeat riff A 1x
repeat riff B 1x
repeat riff A 1x
repeat riff C 1x
repeat riff A 1x
repeat riff B 1x

(end of song)

  Visit MetalTabs.com for more metal tablature

bottom separator

Contact Us | Privacy Policy | Disclaimer | Legal Notice
Copyright © 2001-2014 MetalTabs.com. All Rights Reserved.