top separator

Home

Forum

What's New

Submit a Tab

FAQ

Links

Contact Us

Link to Us

MetalTabs.com logo

Bands

0-9

A

B

C

D

E

F

G

H

I

J

K

L

M

N

O

P

Q

R

S

T

U

V

W

X

Y

Z

Search

What

Where
 

Thyrfing - "Jord" Guitar Tab

Plain Text Version
More Thyrfing Tabs

Hits: 3507
Rated: 4.25 out of 5 (4 votes)
Updated: 2004-08-05 08:13:11

 

By:

Darkenelf

sendpm.gif

email.gif

Important note
This tab is available online because we obtained explicit permission from Thyrfing or their label.


#----------------------------------PLEASE NOTE---------------------------------#
#This file is the author's own work and represents their interpretation of the #
#song. You may only use this file for private study, scholarship, or research. #
#Unless specified otherwise, this is NOT an official tab from the band members.#
#------------------------------------------------------------------------------#

  Visit MetalTabs.com for more metal tablature
  
Band: Thyrfing
Album: Urkraft
Song: Jord

Copyright (c)  (Hammerheart Records) (2000)
Version 1.0 - (26-07-2004)

Transcribed By: Martijn Wietsma
Email: northerland@yahoo.co.uk


.  - palm mute           /  - slide up to
\  - slide down to       ~  - vibrato
h  - hammer on           b  - Bend
p  - pull off            Suffixes for bend
t  - tap                 f  - full bend    h - half bend
ph - pinched harmonic    q  - quarter bend t - tap bend
*  - see comment         ^  - Hold bend    r release bend
x  - Stuccatto           ~  - vibrato bend
,  - slight palm mute    () - ghost note, sustained note
"  - tremolo note        <> - Trill

Tunning E A D G B E

riff A
|-------------------------------------------------------------------|
|-------------------------------------------------------------------|
|-------------------------------------------------------------------|
|------------6---8--------------------------------------------------|
|-8---8------4---6-------8---8---6---6------------------------------|
|-6---6-6h8--------------6---6---4---6------------------------------|

riff B (0:16)
|-------------------------------------------------------------------|
|-------------------------------------------------------------------|
|-------------------------------------------------------------------|(2x)
|-------------------------6-----6-6---8-----8-8---------------------|
|-8-----8-8---8-----8-8---4-444-4-4---6-666-6-6---------------------|
|-6-666-6-6---6-666-6-6---------------------------------------------|

riff C (0:16)
|-------------------------------------------------------------------|
|-------------------------------------------------------------------|
|-------------------------------------------------------------------|(2x)
|-------------6---8------------------6---8--------------------------|
|-8---8-------4---6-------8---8------4---6--------------------------|
|-6---6-6h8---------------6---6-6h8---------------------------------|

riff D (0:32)
|-------------------------------------------------------------------|
|-------------------------------------------------------------------|
|-------------------------------------------------------------------|(2x)
|-------------------------6-----6-6---------------------------------|
|-8-----8-8---8-----8-8---4-444-4-4---6-----6-6---------------------|
|-6-666-6-6---6-666-6-6---------------4-444-4-4---------------------|

riff E (0:47)
|-------------------------------------------------------------------|
|-------------------------------------------------------------------|
|-------------------------------------------------------------------|(1x)
|-------------------------------------------------------------------|
|------------------444-6-4p3----------------------------------------|
|-6--9p8\4h6-9p8\4--------------------------------------------------|

riff F (0:51)
|-------------------------------------------------------------------|
|-------------------------------------------------------------------|
|-------------------------------------------------------------------|(1x)
|-------------------------------------------------------------------|
|---------------------444-444-6~------4p3---------------------------|
|-666-9p8\4-666-9p8\4-----------------------------------------------|

repeat riff E 1x (0:54)

riff G (0:58)
|-------------------------------------------------------------------|
|-------------------------------------------------------------------|
|-------------------------------------------------------------------|(1x)
|--------------------------8-8--------------------------------------|
|---------------------444--6-6--------------------------------------|
|-666-9p8\4-666-9p8\4-----------------------------------------------|

repeat riff E 1x (1:03)
repeat riff G 1x (1:05)

riff H (1:09)
|-------------------------------------------------------------------|
|-------------------------------------------------------------------|
|-------------------------------------------------------------------|(1x)
|------6-5------555--6-5--------------------------------------------|
|-888--4-3--6---333--4-3--6-8---------------------------------------|
|-666-------4-------------4-6---------------------------------------|

|-------------------------------------------------------------------|
|-------------------------------------------------------------------|
|-------------------------------------------------------------------|(1x)
|------6-5----5~--------66-55---------------------------------------|
|-888--4-3--6-3---------44-33-88------------------------------------|
|-666-------4-----------------66------------------------------------|

repeat riff E 1x (1:18)
repeat riff G 1x
repeat riff E 1x
repeat riff G 1x
repeat riff H 1x (1:33)

riff I (1:42)
|-------------------------------------------------------------------|
|-------------------------------------------------------------------|
|-------------------------------------------------------------------|
|-----------------------------3p2h----2h----------------------------|
|-8\-5-----------------------------5-----5-3h5----------------------|
|-6\-3-333-3-333-3-333-3-333----------------------------------------|
       ... . ... . ... . ...

|-------------------------------------------------------------------|
|-------------------------------------------------------------------|
|-------------------------------------------------------------------|
|---------------3------5--------------------------------------------|
|-5------7------1-111--3-333 (drum)---------------------------------|
|-3-333--5-555------------------------------------------------------|

riff J
|-------------------------------------------------------------------|
|-------------------------------------------------------------------|
|-------------------------------------------------------------------|
|-------------------------------------------------------------------|
|-555-3-3-5---------------------------------------------------------|
|-333-1-1-3---------------------------------------------------------|

repeat riff I
|-------------------------------------------------------------------|
|-------------------------------------------------------------------|
|-------------------------------------------------------------------|
|--------------------------3p2h----2h-------------------------------|
|-5-----------------------------5-----5-3h5-------------------------|
|-3-333-3-333-3-333-3-333-------------------------------------------|
    ... . ... . ... . ...

repeat riff J 1x
repeat riff I 1x
repeat riff J 1x
repeat riff I 1x
repeat riff E 1x (2:28)
repeat riff G 1x
repeat riff E 1x
repeat riff G 1x
repeat riff E 1x (2:43)
repeat riff G 1x (2:52)
repeat riff H 1x
repeat riff E 1x
repeat riff G 1x
repeat riff E 1x
repeat riff G 1x
repeat riff H 1x (3:06)
repeat riff I 1x (3:14)
repeat riff J 1x
repeat riff I 1x
repeat riff J 1x
repeat riff I 1x
repeat riff J 1x
repeat riff I 1x
repeat riff J 1x

riff K (4:06)
|-------------------------------------------------------------------|
|-------------------------------------------------------------------|
|-------------------------------------------------------------------|(4x)
|-------------------------------------------------------------------|
|-555-555-555-555---------------------------------------------------|
|-333-333-333-333---------------------------------------------------|
  ... ... ... ...

riff L (4:16)
|-------------------------------------------------------------------|
|-------------------------------------------------------------------|
|-------------------------------------------------------------------|(2x)
|-------------------------------------------------------------------|
|-333-333-333-333---------------------------------------------------|
|-111-111-111-111---------------------------------------------------|
  ... ... ... ...

riff M (4:19)
|-------------------------------------------------------------------|
|-------------------------------------------------------------------|
|---------------5~--------------------------------------------------|
|-7~-----8~-----3---------------------------------------------------|
|-5------6---------------7-5----------------------------------------|
|----------------------0--------------------------------------------|
                       .
riff N (4:09)
|-------------------------------------------------------------------|
|---------------8---------------------------------------------------|
|-----------5h7---7---8-7-8p7h8-5h7---------------------------------|
|---5--7-8----------------------------------------------------------|
|-5-----------------------------------------------------------------|
|-------------------------------------------------------------------|

riff O (4:14)
|-------------------------------------------------------------------|
|---------------8---------------6h8~--------------------------------|
|-----------5h7---7---8-7-8p7h8-------------------------------------|
|---5--7-8----------------------------------------------------------|
|-5-----------------------------------------------------------------|
|-------------------------------------------------------------------|

riff P (4:19)
|-------------------------------------------------------------------|
|-------------------------------------------------------------------|
|-------------------------------------------------------------------|
|-----------5h7-8-7---8-7-8ph8-5h7----------------------------------|
|---5--7-8------------------------------------------7-5-------------|
|-5-----------------------------------------------0-----------------|
                                                  .
riff Q (4:25)
|-------------------------------------------------------------------|
|-------------------------------------------------------------------|
|-------------------------------------------------------------------|(2x)
|------------------3/-7-7---3---------------------------------------|
|-3/-5-5---8-7-5---1/-5-5---1-3-5-----------------------------------|
|-1/-3-3---6-5-3--------------1-3-----------------------------------|

riff R (4:33)
|-------------------------------------------------------------------|
|-------------------------------------------------------------------|
|-------------------------------------------------------------------|(2x)
|-----------------------------3-------------------------------------|
|-5----5-----8-7-5------------1--3/5--------------------------------|
|-3-33-3-33--6-5-3--0-000-00-----1/3--------------------------------|
    ..   ..

repeat riff N 1x (4:42)
repeat riff O 1x
repeat riff P 1x
repeat riff Q 1x (4:57)
repeat riff R 2x

(end of song)

  Visit MetalTabs.com for more metal tablature

bottom separator

Contact Us | Privacy Policy | Disclaimer | Legal Notice
Copyright © 2001-2014 MetalTabs.com. All Rights Reserved.