top separator

Home

Forum

FAQ

Contact Us

Link to Us

MetalTabs.com logo

Bands

0-9

A

B

C

D

E

F

G

H

I

J

K

L

M

N

O

P

Q

R

S

T

U

V

W

X

Y

Z

Between the Buried and Me - "The Need For Repetition" Guitar Tab

Plain Text Version
More Between the Buried and Me Tabs

Hits: 5855
Rated: 4.50 out of 5 (2 votes)
Updated: 2004-10-22 15:53:28

By:

Obswalq


#----------------------------------PLEASE NOTE---------------------------------#
#This file is the author's own work and represents their interpretation of the #
#song. You may only use this file for private study, scholarship, or research. #
#Unless specified otherwise, this is NOT an official tab from the band members.#
#------------------------------------------------------------------------------#

  Visit MetalTabs.com for more metal tablature
  
Band:  Between the Buried and Me
Album: The Silent Circus
Song:  The Need For Repetition
Track: 10

Copyright  Victory Records 2003
Version 3.0 - October 16, 2004

Transcribed By:  riffer_03
Edited By:       Cory Brown (sculpted_cold@yahoo.com)

Tab legend:
.  - palm mute           /  - slide up to
\  - slide down to       ~  - vibrato
h  - hammer on           b  - Bend
p  - pull off            Suffixes for bend
t  - tap                 f  - full bend    h - half bend
ph - pinched harmonic    q  - quarter bend t - tap bend
*  - see comment         ^  - Hold bend    r release bend
x  - Stuccatto           ~  - vibrato bend
,  - slight palm mute    () - ghost note, sustained note
"  - tremolo note        <> - Trill

Tunning: C# F# B E G# C#


             x4
|-----------|-----------------------------------||
|-----------|------6/12-------------------------||
|-----------|.------------------5-4-4-----------.|
|-----------|.-----3/9--------------------------.|
|-2---------|---2---------------3-2-2---3-5-3-4-||
|-0---------|---0-------0---------------1-3-1-2-||
                                        pm.....
 x5
|----------------||
|----------------||
|.---------------.|
|.---------------.|
|--2-----3-5-3-4-||
|--0-----1-3-1-2-||
         pm.....

 x5
|-----------------------------------||
|------6/12-------------------------||
|.------------------5-4-4-----------.|
|.-----3/9--------------------------.|
|---2---------------3-2-2---3-5-3-4-||
|---0-------0---------------1-3-1-2-||
                            pm.....

 x5
|-----------------||
|-----------------||
|.-----\----------.|
|.-----\----------.|
|--2------3-5-3-4-||
|--0------1-3-1-2-||
         pm.....

 x5
|-----------------------------------||
|------6/12-------------------------||
|.------------------5-4-4-----------.|
|.-----3/9--------------------------.|
|---2---------------3-2-2---3-5-3-4-||
|---0-------0---------------1-3-1-2-||
                            pm.....


|------------||
|------------||
|------------||
|------------||
|-2----------||
|-0----------||

|---------------------------------------------------------------------
|---------------------------------------------------------------------
|---------------------------------------------------------------------
|-------------------------------------------------------5h7h8---------
|------4h6h7-----------4h6h7------4h6h7------------4h6h7--------------
|-3h5h6-----------3h5h6------3h5h6------------3h5h6-------------------
  pm..................................................................

 Guitar 1                                                                x2
|--------------------------------------|-----------------------------------||
|--------------------------------------|-----------------------------------||
|.-------------------------------------|.---------------------------------.||
|.-------------------------------------|.---------------------------------.||
|------4h6h7---------------------------|-------4h6h7------4h6h7------------||
|-3h5h6--------------------------------|--3h5h6------3h5h6-----------------||

 Guitar 2                                                                x2
|--------------------------------------|-----------------------------------||
|--------------------------------------|-----------------------------------||
|.-----------------------------6h8h9---|.---------------------------6h8h9-.||
|.------------------------5h7h8--------|.----------------------5h7h8------.||
|--------------------4h6h7-------------|------------------4h6h7------------||
|---------------3h5h6------------------|-------------3h5h6-----------------||
 Repeat the two bars above twice.

 Guitar 1
|------------------------------------------------------------------||
|------------------------------------------------------------------||
|------------------------------------------------------------------||
|----------------------------------5h7h8---------------------------||
|------------4h6h7------------4h7h8--------------------------------||
|-------3h5h6------------3h5h6-------------------------------------||

 Guitar 2
|------------------------------------------------------------------||
|------------------------------------------------------------------||
|------------------------------------------------------------------||
|------------------------------------------------------------------||
|-3-4-2------------3-4-2-----------------3-4-2-3-4-2-3-4-2-3-4-2---||
|-5-6-4------------5-6-4-----------------5-6-4-5-6-4-5-6-4-5-6-4---||
                                                           pm....
These inverted power chords might be wrong.

 Both guitars.
|----------------------------------||
|----------------------------------||
|----------------------------------||
|----------------------------------||
|--0---0---0---0---0---0---0---0---||
|-3-3-2-2-3-3-2-2-3-3-2-2-8-8-7-7--||

                                  xalot
|---------------------------------------||
|------------------11-------------------||
|.----------------9-------0------0-----.||
|.------5----5--/9-------7------4-4----.||
|---7--7-6--6-----------5------5--------||
|---------------------------------------||
 (Clean, distorted, clean.)

(Random pick scrapes and noises at the end with the
 bass playing the above riff.)

  Visit MetalTabs.com for more metal tablature

bottom separator

Contact Us | Privacy Policy | Disclaimer
Copyright © 2001-2014 MetalTabs.com. All Rights Reserved.