top separator

Home

Forum

What's New

Submit a Tab

FAQ

Links

Contact Us

Link to Us

MetalTabs.com logo

Bands

0-9

A

B

C

D

E

F

G

H

I

J

K

L

M

N

O

P

Q

R

S

T

U

V

W

X

Y

Z

Search

What

Where
 

Katatonia - "The nothern silence" Guitar Tab

Plain Text Version
More Katatonia Tabs

Hits: 5188
Rated: 4.75 out of 5 (4 votes)
Updated: 2004-08-05 08:04:37

 

By:

sendpm.gif

email.gif

Important note
This tab is available online because we obtained explicit permission from Katatonia or their label.


#----------------------------------PLEASE NOTE---------------------------------#
#This file is the author's own work and represents their interpretation of the #
#song. You may only use this file for private study, scholarship, or research. #
#Unless specified otherwise, this is NOT an official tab from the band members.#
#------------------------------------------------------------------------------#

  Visit MetalTabs.com for more metal tablature
  
Band:  Katatonia
Album: Jhva Elohim Meth.. the Revival
Song:  The Northern Silence

Copyright (c)  The End Records 1992
Version 1.0 - July 24, 2004

Transcribed By: J. Tobin
Email:          jamietobin13@hotmail.com
                www.siroccoband.tk


.  - palm mute           /  - slide up to
\  - slide down to       ~  - vibrato
h  - hammer on           b  - Bend
p  - pull off            Suffixes for bend
t  - tap                 f  - full bend    h - half bend
ph - pinched harmonic    q  - quarter bend t - tap bend
*  - see comment         ^  - Hold bend    r release bend
x  - Stuccatto           ~  - vibrato bend
,  - slight palm mute    () - ghost note, sustained note
"  - tremolo note        <> - Trill

Tunning E A D G B E

--------------------------------------------------------------------
00:01 - 00:54

Gtr. 1
|---------------------------------------------------------------------|
|---------------------------------------------------------------------|
|-0--7---2--2--0--7--2--2---5--------7--------2----------2---------2--|
|-5--7---2--2--5--7--2--2---5-5-3-2--7-7-5-3--2-2h3p2----2-2h3p2---2--|
|-3--5---0--0--3--5--0--0---3--------5--------0------3-0-0-------3-0--|
|---------------------------------------------------------------------|

Gtr. 2  (first 2 times)
|-----------------1-0h1------0h1p0----------0h1p0---------------------|
|------0h1------3-------3----------0--------------0-------------------|
|---------0---2----------------------0--------------0-----------------|
|----2------0---------------------------------------------------------|
|---3---------------------0------------0--0-----------0---------------|
|---------------------------------------------------------------------|
Gtr. 2 (Second 2 times)
|-----------------1-0h1-------------0--------------0------------------|
|------0h1------3-------3---------------------------------------------|
|---------0---2------------------2-------------2----------------------|
|----2------0------------------2--2--2-------2---2---2----------------|
|---3---------------------0--0----------0--0--------------------------|
|---------------------------------------------------------------------|

Ending bar:

Gtr. 1
|---------------------------------------------------------------------|
|---------------------------------------------------------------------|
|-2-------------------------------------------------------------------|
|-2------------5--------2--------3------------------------------------|
|-0------------5--------2--------3------------------------------------|
|--------------3--------0--------1------------------------------------|

|---------------------------0-----------------------------------------|
|-----0-----------0---------------------------------------------------|
|-------0----------0------0-------------------------------------------|
|---2------------2-------2--------------------------------------------|
|-0-------------------------------------------------------------------|
|--------------3--------0--------1------------------------------------|

--------------------------------------------------------------------
00:55 - 1:30

|---------------------------------------------------------------------|
|---------------------------------------------------------------------|
|---------------------------------------------------------------------|
|-55555-44444-77777-99999-----55555-44444-00000-22222-----------------|
|-00000-00000-00000-00000-----00000-00000-00000-00000-----------------|
|---------------------------------------------------------------------|

|---------------------------------------------------------------------|
|---------------------------------------------------------------------|
|-55555-44444-77777-99999-----55555-44444-00000-22222-----------------|
|-00000-00000-00000-00000-----00000-00000-00000-00000-----------------|
|---------------------------------------------------------------------|
|---------------------------------------------------------------------|

Ending Bar:

|---------------------------------------------------------------------|
|---------------------------------------------------------------------|
|---------------------------------------------------------------------|
|-55555-44444-77777-99999-----55555-44444-00000-22222-----------------|
|-00000-00000-00000-00000-----00000-33333-22222-xxxxx-----------------|
|-----------------------------------------------33333-----------------|

--------------------------------------------------------------------

01:30 - 02:07

|-----------------------------.---------------------------------------|
|-----------------------------.---------------------------------------|
|-------------------2---------.---------------------------------------|
|-2--5-4---5--5-4---2-5-4---2-.---------------------------------------|
|-2------5-5------5-0-----5-2-.---------------------------------------|
|-0--------3----------------0-.---------------------------------------|

|-----------------------------.---------------------------------------|
|-------------------2---------.---------------------------------------|
|-2--5-4---5--5-4---2-5-4---2-.---------------------------------------|
|-2------5-5------5-0-----5-2-.---------------------------------------|
|-0--------3----------------0-.---------------------------------------|
|---------------------------------------------------------------------|

--------------------------------------------------------------------

02:07 - 03:02

Gtr. 1
|---------------------------------------------------------------------|
|---------------------------------------------------------------------|
|-0--7---2--2--0--7--2--2---5--------7--------2----------2---------2--|
|-5--7---2--2--5--7--2--2---5-5-3-2--7-7-5-3--2-2h3p2----2-2h3p2---2--|
|-3--5---0--0--3--5--0--0---3--------5--------0------3-0-0-------3-0--|
|---------------------------------------------------------------------|

Gtr. 2  (first 2 times)
|-----------------1-0h1------0h1p0----------0h1p0---------------------|
|------0h1------3-------3----------0--------------0-------------------|
|---------0---2----------------------0--------------0-----------------|
|----2------0---------------------------------------------------------|
|---3---------------------0------------0--0-----------0---------------|
|---------------------------------------------------------------------|
Gtr. 2 (Second 2 times)
|-----------------1-0h1-------------0--------------0------------------|
|------0h1------3-------3---------------------------------------------|
|---------0---2------------------2-------------2----------------------|
|----2------0------------------2--2--2-------2---2---2----------------|
|---3---------------------0--0----------0--0--------------------------|
|---------------------------------------------------------------------|

Ending bar:

Gtr. 1
|---------------------------------------------------------------------|
|---------------------------------------------------------------------|
|-2-------------------------------------------------------------------|
|-2------------5--------2--------3------------------------------------|
|-0------------5--------2--------3------------------------------------|
|--------------3--------0--------1------------------------------------|

|---------------------------0-----------------------------------------|
|-----0-----------0---------------------------------------------------|
|-------0----------0------0-------------------------------------------|
|---2------------2-------2--------------------------------------------|
|-0-------------------------------------------------------------------|
|--------------3--------0--------1------------------------------------|


--------------------------------------------------------------------

03:03 -

|---------------------------------------------------------------------|
|---------------------------------------------------------------------|
|---------------------------------------------------------------------|
|-2-222-2-2222-5-5555-5-5555-7-7777-7-7777-5-5555-5-3-2-0-------------|
|-0-000-0-0000-2-2222-2-2222-3-3333-3-3333-2-2222-2-------------------|
|---------------------------------------------------------------------|

|---------------------------------------------------------------------|
|---------------------------------------------------------------------|
|--------------------------------------------------------------2------|
|-2222-2-2222-55555-5-5555-77777-7-7777-55555-5-3-2-0----------2------|
|-0000-0-0000-22222-2-2222-33333-3-3333-22222-2----------------0------|
|---------------------------------------------------------------------|


END

  Visit MetalTabs.com for more metal tablature

bottom separator

Contact Us | Privacy Policy | Disclaimer | Legal Notice
Copyright © 2001-2014 MetalTabs.com. All Rights Reserved.