top separator

Home

Forum

What's New

Submit a Tab

FAQ

Links

Contact Us

Link to Us

MuSpy.com

MetalTabs.com logo

Bands

0-9

A

B

C

D

E

F

G

H

I

J

K

L

M

N

O

P

Q

R

S

T

U

V

W

X

Y

Z

Search

What

Where
 

Decapitated - "Spheres of Madness" Guitar Tab

Plain Text Version
More Decapitated Tabs

Hits: 8942
Rated: 1.67 out of 5 (12 votes)
Updated: 2004-08-05 08:04:17

 

By:

sendpm.gif

email.gif

Important note
This tab is available online because we obtained explicit permission from Decapitated or their label.


#----------------------------------PLEASE NOTE---------------------------------#
#This file is the author's own work and represents their interpretation of the #
#song. You may only use this file for private study, scholarship, or research. #
#Unless specified otherwise, this is NOT an official tab from the band members.#
#------------------------------------------------------------------------------#

  Visit MetalTabs.com for more metal tablature
  
Band:  Decapitated
Album: Nihility
Song:  Spheres Of Madness
Copyright (c)  Earache Records 2002
Version 1.0 - 24/07/04

Transcribed By: Archimonde
Email: Archimonde26@hotmail.com


.  - palm mute           /  - slide up to
\  - slide down to       ~  - vibrato
h  - hammer on           b  - Bend
p  - pull off            Suffixes for bend
t  - tap                 f  - full bend    h - half bend
ph - pinched harmonic    q  - quarter bend t - tap bend
*  - see comment         ^  - Hold bend    r release bend
x  - Stuccatto           ~  - vibrato bend
,  - slight palm mute    () - ghost note, sustained note
"  - tremolo note        <> - Trill

Tuning Dropped D (D A D G b e)

INTRO RIFF A
e|-------------------------------||-----------------------------------|
b|-------------------------------||-----------------------------------|
G|-------------------------------||-----------------------------------|
D|-------------------------------||-----------------------------------|
A|-------------------------------||------------------------------0----|
D|--000-000-0000--000000-000000--||-000-000-0000--000-000--0000--0----|
    ... ... ....  ...... ......     ... ... ....  ... ...  ....

INTRO RIFF B GUITAR 1
e|--------------------------------------------------------------------|
b|--------------------------------------------------------------------|
G|--------------------------------------------------------------------|
D|---------------------6633-------------------------------------------|
A|---5522----------5522----5522------5522------------------------0----|
D|-------00-6699---------------6699------00-6699--000-000--0000--0----|
     ...... ....   ................  ...... ....  ... ...  ....

INTRO RIFF B GUITAR 2
e|--------------------------------------------------------------------|
b|--------------------------------------------------------------------|
G|--------------------------------------------------------------------|
D|---------------------9966-------------------------------------------|
A|---8855---2255---8855----88552255--8855---2255-----------------0----|
D|-------00------------------------------00-------000-000--0000--0----|
     ...... ....   ................  ...... ....  ... ...  ....

VERSE RIFF INTRO-FILL      VERSE RIFF A
e|--------------------||----------------------------------------------|
b|--------------------||----------------------------------------------|
G|--------------------||----------------------------------------------|
D|--------------------||----------------------------------------------|
A|-------1\0----------||------2h3-2h3h4\0-----------------------------|
D|--000--2\1----------||-0000-2h3-2h3h4\0--0000-0000-0000-0000--------|
    ...                  ....                .... .... .... ....

VERSE RIFF END FILL
e|--------------------------------------------------------------------|
b|--------------------------------------------------------------------|
G|--------------------------------------------------------------------|
D|--------------------------------------------------------------------|
A|--2h5p2h5-----------------------------------------------------------|
D|---------6h9--------------------------------------------------------|

VERSE MAIN RIFF
e|--------------------------------------------------------------------|
b|--------------------------------------------------------------------|
G|--------------------------------------------------------------------|
D|--------------------------------------------------------------------|
A|-------2h3-2h3h4\0------------2h3-2h3h4\0---------------------------|
D|--0000-2h3-2h3h4\0-------0000-2h3-2h3h4\0-----0000--0000-0000-------|
    ....                   ....                 ....  .... ....

CHORUS RIFF GUITAR 1
e|--------------------------|  |--------------------------------------|
b|--------------------------|  |--------------------------------------|
G|--------------------------|  |--------------------------------------|
D|--------------------------|x3|------------------6h9p6h9p6h9p0h6-----|
A|--------------------------|  |5h8p5h8p5h8p5h8-----------------------|
D|-00000000-6h9p6h9p6h9p3h6-|  |--------------------------------------|
   ........

CHORUS RIFF GUITAR 2
e|--------------------------|  |--------------------------------------|
b|--------------------------|  |-------------------9h12p9h12p9h12-----|
G|--------------------------|  |7h10p7h10p7h10p7h10--------------7h10-|
D|----------6h9p6h9p6h9p3h6-|x3|--------------------------------------|
A|--------------------------|  |--------------------------------------|
D|-00000000-----------------|  |--------------------------------------|
   ........

BRIDGE RIFF
e|--------------------------------------------------------------------|
b|--------------------------------------------------------------------|
G|--------------------------------------------------------------------|
D|--------------------------------------------0------------------1----|
A|--23-2-----------------3----2---------23-2--0------------------1----|
D|--23-2--4333-6333-7333--333--333------23-2----1211-4444-1211---1----|
     .    .... .... .... .... ....       .      .... .... ....

BRIDGE RIFF
e|--------------------------------------------------------------------|
b|--------------------------------------------------------------------|
G|--------------------------------------------------------------------|
D|--------------------------------------------0-1---------------------|
A|--23-2-----------------3----2---------23-2--0-1---------------------|
D|--23-2--4333-6333-7333--333--333------23-2--------------------------|
     .    .... .... .... .... ....       .
END

  Visit MetalTabs.com for more metal tablature

bottom separator

Contact Us | Privacy Policy | Disclaimer | Legal Notice
Copyright © 2001-2014 MetalTabs.com. All Rights Reserved.