top separator

Home

Forum

What's New

Submit a Tab

FAQ

Links

Contact Us

Link to Us

MetalTabs.com logo

Bands

0-9

A

B

C

D

E

F

G

H

I

J

K

L

M

N

O

P

Q

R

S

T

U

V

W

X

Y

Z

Search

What

Where
 

Summoning - "Flight of the Nazgul" Guitar Tab

Plain Text Version
More Summoning Tabs

Hits: 7335
Rated: 4.50 out of 5 (2 votes)
Updated: 2004-08-05 07:56:51

 

By:

sendpm.gif

email.gif

Important note
This tab is available online because we obtained explicit permission from Summoning or their label.


#----------------------------------PLEASE NOTE---------------------------------#
#This file is the author's own work and represents their interpretation of the #
#song. You may only use this file for private study, scholarship, or research. #
#Unless specified otherwise, this is NOT an official tab from the band members.#
#------------------------------------------------------------------------------#

  Visit MetalTabs.com for more metal tablature
  
Band: Summoning
Album: Lugburz
Song name: Flight of the nazgul

Copyright (c)  (Napalm records) (1995)

Transcribed by: Pekka
Email: kalessin_9@hotmail.com

.  - palm mute           /  - slide up to
\  - slide down to       ~  - vibrato
h  - hammer on           b  - Bend
p  - pull off            Suffixes for bend
t  - tap                 f  - full bend    h - half bend
ph - pinched harmonic    q  - quarter bend t - tap bend
*  - see comment         ^  - Hold bend    r release bend
x  - Stuccatto           ~  - vibrato bend
,  - slight palm mute    () - ghost note, sustained note
"  - tremolo note        <> - Trill

Tuning: E A D G B E
                                        **********************
                                        *FLIGHT OF THE NAZGUL*
                                        **********************
RIFF 1.

e----------------------|
H----------------------|
G----------------------|
D-7---7------5---5-----|
A-------7---7----------|
E----------------------|

RIFF 2.
e-----------------------------------------|
H-----------------------------------------|
G-9------9-8---11-12-11----11-12-9------7-|x6
D---10-9-----9----------12---------10-9---|
A-----------------------------------------|
E-----------------------------------------|

RIFF 3.
e--------------------------|
H---10-8-11----10---10-11--|
G-7---------10----9--------|x4
D--------------------------|
A--------------------------|
E--------------------------|

RIFF 4.
e-------------------------------|
H-------------------------------|
G-------------------------------|(x2 only once. Play this x4 when you must
D-------------------------------|jump to this again)
A-2-1-2-4-5-4-5-7-5-4-5-4-2-1---|
E-----------------------------2-|

RIFF 5.
e-----------------------------------------|
H-----------------------------------------|
G-----------------------------------------|x2 then back to the riff 4.
D---2-0-----------------------------------|
A-2-----4-5-4-2-4-5-4-5-4-2-1-2-4---------|
E-----------------------------------------|

SYNTH PART

Start from 4.
After RIFF 5 go back to 4 again.
After the RIFF 5, start from RIFF 2.
when you reach RIFF 5, jump to 4, and after 5 back to 4 and 5 (again)
then back to 4.

This is not perfect but mostly right.

(for contact: kalessin_9@hotmail.com)

  Visit MetalTabs.com for more metal tablature

bottom separator

Contact Us | Privacy Policy | Disclaimer | Legal Notice
Copyright © 2001-2014 MetalTabs.com. All Rights Reserved.