top separator

Home

Forum

What's New

Submit a Tab

FAQ

Links

Contact Us

Link to Us

MuSpy.com

MetalTabs.com logo

Bands

0-9

A

B

C

D

E

F

G

H

I

J

K

L

M

N

O

P

Q

R

S

T

U

V

W

X

Y

Z

Search

What

Where
 

Psycroptic - "Battling The Misery Of Organon" Guitar Tab

Plain Text Version
More Psycroptic Tabs

Hits: 2840
Rated: 4.00 out of 5 (2 votes)
Updated: 2004-08-05 07:39:34

 

By:

sendpm.gif

email.gif

Important note
This tab is available online because we obtained explicit permission from Psycroptic or their label.


#----------------------------------PLEASE NOTE---------------------------------#
#This file is the author's own work and represents their interpretation of the #
#song. You may only use this file for private study, scholarship, or research. #
#Unless specified otherwise, this is NOT an official tab from the band members.#
#------------------------------------------------------------------------------#

  Visit MetalTabs.com for more metal tablature
  
Band : Psycroptic
Album : The Scepter of the Ancients
Song : Battling The Misery Of Organon

Label : Unique Leader 2003(copyright
Version 1.0 (21/06/04)

Transcribed By: Sketa Fitzsimon
Email: skeeta_fitzsimon@hotmail.com

There are two missing parts I've marked where they are.
The rhythm's aren't written down correctly so you'll
just have to listen to the cd to get it right.
also there is alot of palm muting in this song so again listen to the cd.
(this is my interpretation of the song
if its wrong its wrong,but i gave it a shot)

RIFF A
(1 Time)
E-|-----------|-----------|-------|---------------|
B-|-----------|-----------|-------|---------------|
G-|-----------|-----------|-------|---------------|
D-|---------7-|-----------|-5-8-7-|-5-4-0-4-1-0-1-|
A-|-------6-5-|-----------|-3-6-5-|-5-4-0-4-1-0-1-|
D-|-8-7-5-----|-0-0-0-0-0-|-------|-5-4-0-4-1-0-1-|


E-|-----------|-----------|-------|---------------------------------|
B-|-----------|-----------|-------|---------------------------------|
G-|-----------|-----------|-------|---------------------------------|
D-|---------7-|-----------|-5-8-7-|-5-0-4-0-8-0-7-0-8-7-5-4-7-5-4---|
A-|-------6-5-|-----------|-3-6-5-|-------------------------------6-|
D-|-8-7-5-----|-0-0-0-0-0-|-------|---------------------------------|


E-|-----------|-----------|-------|---------------|
B-|-----------|-----------|-------|---------------|
G-|-----------|-----------|-------|---------------|
D-|---------7-|-----------|-5-8-7-|-5-4-0-4-1-0-1-|
A-|-------6-5-|-----------|-3-6-5-|-5-4-0-4-1-0-1-|
D-|-8-7-5-----|-0-0-0-0-0-|-------|-5-4-0-4-1-0-1-|


E-|-----------|-----------|-------|---------------------------------|
B-|-----------|-----------|-------|---------------------------------|
G-|-----------|-----------|-------|---------------------------------|
D-|---------7-|-----------|-5-8-7-|-5-0-4-0-8-0-7-0-8-7-5-4-7-5-4---|
A-|-------6-5-|-----------|-3-6-5-|-------------------------------6-|
D-|-8-7-5-----|-0-0-0-0-0-|-------|---------------------------------|


RIFF B
(4 Times)
E-|-----------|---|-------------------|
B-|-----------|---|-------------------|
G-|-----------|---|-------------------|
D-|-----------|-0-|-6-3---------------|
A-|-----------|-0-|-----5---------(5)-|   (2nd & 4th Times)
D-|-0-0-0-0-0-|-0-|-------6-3-1/3-----|

RIFF C
(2 Times)
E-|-------------|----------------|-------------|-----------------|
B-|-------------|----------------|-------------|-----------------|
G-|-------------|----------------|-------------|-----------------|
D-|-------------|-------3--------|-------------|-6-3-----0-5-0-1-|
A-|-------------|-----5---5------|-------------|-----5---0-5-0-1-|
D-|-0-0-0-0-0-0-|-3-6-------6--3-|-0-0-0-0-0-0-|-------6-0-5-0-1-|

RIFF A
(1 Time)
E-|-----------|-----------|-------|---------------|
B-|-----------|-----------|-------|---------------|
G-|-----------|-----------|-------|---------------|
D-|---------7-|-----------|-5-8-7-|-5-4-0-4-1-0-1-|
A-|-------6-5-|-----------|-3-6-5-|-5-4-0-4-1-0-1-|
D-|-8-7-5-----|-0-0-0-0-0-|-------|-5-4-0-4-1-0-1-|


E-|-----------|-----------|-------|---------------------------------|
B-|-----------|-----------|-------|---------------------------------|
G-|-----------|-----------|-------|---------------------------------|
D-|---------7-|-----------|-5-8-7-|-5-0-4-0-8-0-7-0-8-7-5-4-7-5-4---|
A-|-------6-5-|-----------|-3-6-5-|-------------------------------6-|
D-|-8-7-5-----|-0-0-0-0-0-|-------|---------------------------------|


E-|-----------|-----------|-------|---------------|
B-|-----------|-----------|-------|---------------|
G-|-----------|-----------|-------|---------------|
D-|---------7-|-----------|-5-8-7-|-5-4-0-4-1-0-1-|
A-|-------6-5-|-----------|-3-6-5-|-5-4-0-4-1-0-1-|
D-|-8-7-5-----|-0-0-0-0-0-|-------|-5-4-0-4-1-0-1-|


E-|-----------|-----------|-------|---------------------------------|
B-|-----------|-----------|-------|---------------------------------|
G-|-----------|-----------|-------|---------------------------------|
D-|---------7-|-----------|-5-8-7-|-5-0-4-0-8-0-7-0-8-7-5-4-7-5-4---|
A-|-------6-5-|-----------|-3-6-5-|-------------------------------6-|
D-|-8-7-5-----|-0-0-0-0-0-|-------|---------------------------------|


RIFF D
(4 Times)
E-|-----------|---------------|
B-|-----------|---------------|
G-|-----------|---------------|
D-|-5-4-3-0-4-|-5-4-3-0-5-6-4-|
A-|-3-4-3-0-2-|-3-4-3-0-3-4-2-|
D-|---4-3-0---|---4-3-0-------|

RIFF E
(2 Times)
E-|---------|---------|---------|
B-|---------|---------|---------|
G-|---------|---------|---------|
D-|---------|---------|---------|
A-|---1-1-1-|---------|-5-4-1-4-|
D-|-0-------|-0-4-4-4-|---------|


E-|---------|---------|-------------|
B-|---------|---------|-------------|
G-|---------|---------|-------------|
D-|---------|---------|-------------|
A-|---1-1-1-|---------|-------1-2-4-|
D-|-0-------|-0-4-4-4-|-2-3-5-------|


RIFF F
(1 Time)
E-|-------------------------------------------|--------------|
B-|-------------------------------------------|--------------|
G-|-------------------------------------------|--------------|
D-|-------------------------------------------|-0-0-0--0-0-0-|
A-|-3-3-3-------3-3-3-------------3-3-3-------|-0-0-0--0-0-0-|
D-|-------4-4-4-------4-4-4-1-1-1-------4-4-4-|-0-0-0--0-0-0-|


E-|-------------------------------------------|---------------|
B-|-------------------------------------------|---------------|
G-|-------------------------------------------|---------------|
D-|-------------------------------------------|-------4-------|
A-|-3-3-3-------3-3-3-------------3-3-3-------|-----5---3-----|
D-|-------4-4-4-------4-4-4-1-1-1-------4-4-4-|-0-1-------4-1-|


RIFF E
(2 Times)
E-|---------|---------|---------|
B-|---------|---------|---------|
G-|---------|---------|---------|
D-|---------|---------|---------|
A-|---1-1-1-|---------|-5-4-1-4-|
D-|-0-------|-0-4-4-4-|---------|


E-|---------|---------|-------------|
B-|---------|---------|-------------|
G-|---------|---------|-------------|
D-|---------|---------|-------------|
A-|---1-1-1-|---------|-------1-2-4-|
D-|-0-------|-0-4-4-4-|-2-3-5-------|


RIFF F
(1 Time)
E-|-------------------------------------------|--------------|
B-|-------------------------------------------|--------------|
G-|-------------------------------------------|--------------|
D-|-------------------------------------------|-0-0-0--0-0-0-|
A-|-3-3-3-------3-3-3-------------3-3-3-------|-0-0-0--0-0-0-|
D-|-------4-4-4-------4-4-4-1-1-1-------4-4-4-|-0-0-0--0-0-0-|


E-|-------------------------------------------|---------------|
B-|-------------------------------------------|---------------|
G-|-------------------------------------------|---------------|
D-|-------------------------------------------|-------4-------|
A-|-3-3-3-------3-3-3-------------3-3-3-------|-----5---3-----|
D-|-------4-4-4-------4-4-4-1-1-1-------4-4-4-|-0-1-------4-1-|

MISSING RIFF G (2 Times) at 01:42


RIFF H
(2 Times)
E-|-------------------------------------------|
B-|-------------------------------------------|
G-|-------------------------------------------|
D-|-------------------------------------2-3-5-|
A-|-1-1-1-------------------------1-3-4-------|
D-|-------2-2-2-1-1-1-5-5-5-1-1-1-------------|


E-|------------------------|
B-|------------------------|
G-|------------------------|
D-|----------------------0-|
A-|-1-1-1----------------0-|
D-|-------2-2-2-1-1-1-4~-0-|



MISSING RIFF I(1 TIME)  at 02:00


RIFF H
(4 Times)
E-|-------------------------------------------|
B-|-------------------------------------------|
G-|-------------------------------------------|
D-|-------------------------------------2-3-5-|
A-|-1-1-1-------------------------1-3-4-------|
D-|-------2-2-2-1-1-1-5-5-5-1-1-1-------------|


E-|------------------------|
B-|------------------------|
G-|------------------------|
D-|----------------------0-|
A-|-1-1-1----------------0-|
D-|-------2-2-2-1-1-1-4~-0-|


RIFF J
(1 TIME)
E-|-------------------------|-------|---|
B-|-------------------------|-------|---|
G-|-------------------------|-------|---|
D-|-0-2-3-------------------|-7-1-5-|-1-|
A-|-0-0-1-------2-3-5-3-5-6-|-5-1-3-|-1-|
D-|-0-----1-2-4-------------|---1---|-1-|


RIFF K (2 Times) 2nd time only play to (*)              *
E-|-------|------------------|-------|-------------------|
B-|-------|------------------|-------|-------------------|
G-|-------|------------------|-------|-------------------|
D-|-------|------------------|-------|-------------------|
A-|-------|----------9-10-12-|-------|----------10-12-13-|
D-|-0-0-0-|-10-12-13---------|-0-0-0-|-10-12-13----------|

E-|-------|------------------|-------|
B-|-------|------------------|-------|
G-|-------|------------------|-------|
D-|-------|------------------|-10-13-|
A-|-------|----------9-10-12-|-10-13-|
D-|-0-0-0-|-10-12-13---------|-10-13-|


RIFF J (2 Times) 1st time is different to what i have here.
E-|-------------------------|-------|---|
B-|-------------------------|-------|---|
G-|-------------------------|-------|---|
D-|-0-2-3-------------------|-7-1-5-|-1-|
A-|-0-0-1-------2-3-5-3-5-6-|-5-1-3-|-1-|
D-|-0-----1-2-4-------------|---1---|-1-|


RIFF L (4 Times)
E-|-------------|-------------|-------------|----------------------|-------|
B-|-------------|-------------|-------------|----------------------|-------|
G-|-------------|-------------|-------------|----------------------|-------|
D-|-------------|-------------|-------8-8-8-|-7-----10-10-10-------|-------|
A-|-5-5-5-8-8-8-|-8-8-8-7-7-7-|-7-7-7-------|---8-7----------8-7-5-|-7-7-7-|
D-|-------------|-------------|-------------|----------------------|-------|


E-|----------------|-------------|---------------------|-----------------|
B-|----------------|-------------|---------------------|-----------------|
G-|----------------|-------------|---------------------|-----------------|
D-|----------------|-------------|-0-7-0-0-7-0-5-0-3-0-|-2-3-2-0---------|
A-|----------7-7-7-|-7-7-7-5-5-5-|---------------------|-----------------|
D-|-10-10-10-------|-------------|---------------------|---------2-3-2-0-|


RIFF M (1 Time)
E-|-------------|
B-|-------------|
G-|-------------|
D-|-0-2-3-2-3-0-|
A-|-0-0-1-0-1-0-|
D-|-0---------0-|


RIFF B
(4 Times)
E-|-----------|---|-------------------|
B-|-----------|---|-------------------|
G-|-----------|---|-------------------|
D-|-----------|-0-|-6-3---------------|
A-|-----------|-0-|-----5---------(5)-|   (2nd & 4th Times)
D-|-0-0-0-0-0-|-0-|-------6-3-1/3-----|


RIFF C
(2 Times)
E-|-------------|----------------|-------------|-----------------|
B-|-------------|----------------|-------------|-----------------|
G-|-------------|----------------|-------------|-----------------|
D-|-------------|-------3--------|-------------|-6-3-----0-5-0-1-|
A-|-------------|-----5---5------|-------------|-----5---0-5-0-1-|
D-|-0-0-0-0-0-0-|-3-6-------6--3-|-0-0-0-0-0-0-|-------6-0-5-0-1-|


RIFF A
(1 Time)
E-|-----------|-----------|-------|---------------|
B-|-----------|-----------|-------|---------------|
G-|-----------|-----------|-------|---------------|
D-|---------7-|-----------|-5-8-7-|-5-4-0-4-1-0-1-|
A-|-------6-5-|-----------|-3-6-5-|-5-4-0-4-1-0-1-|
D-|-8-7-5-----|-0-0-0-0-0-|-------|-5-4-0-4-1-0-1-|


E-|-----------|-----------|-------|---------------------------------|
B-|-----------|-----------|-------|---------------------------------|
G-|-----------|-----------|-------|---------------------------------|
D-|---------7-|-----------|-5-8-7-|-5-0-4-0-8-0-7-0-8-7-5-4-7-5-4---|
A-|-------6-5-|-----------|-3-6-5-|-------------------------------6-|
D-|-8-7-5-----|-0-0-0-0-0-|-------|---------------------------------|


E-|-----------|-----------|-------|---------------|
B-|-----------|-----------|-------|---------------|
G-|-----------|-----------|-------|---------------|
D-|---------7-|-----------|-5-8-7-|-5-4-0-4-1-0-1-|
A-|-------6-5-|-----------|-3-6-5-|-5-4-0-4-1-0-1-|
D-|-8-7-5-----|-0-0-0-0-0-|-------|-5-4-0-4-1-0-1-|


E-|-----------|-----------|-------|---------------------------------|
B-|-----------|-----------|-------|---------------------------------|
G-|-----------|-----------|-------|---------------------------------|
D-|---------7-|-----------|-5-8-7-|-5-0-4-0-8-0-7-0-8-7-5-4-7-5-4---|
A-|-------6-5-|-----------|-3-6-5-|-------------------------------6-|
D-|-8-7-5-----|-0-0-0-0-0-|-------|---------------------------------|

END!

  Visit MetalTabs.com for more metal tablature

bottom separator

Contact Us | Privacy Policy | Disclaimer | Legal Notice
Copyright © 2001-2014 MetalTabs.com. All Rights Reserved.