top separator

Home

Forum

What's New

Submit a Tab

FAQ

Links

Contact Us

Link to Us

MuSpy.com

MetalTabs.com logo

Bands

0-9

A

B

C

D

E

F

G

H

I

J

K

L

M

N

O

P

Q

R

S

T

U

V

W

X

Y

Z

Search

What

Where
 

As I Lay Dying - "Song 10" Guitar Tab

Plain Text Version
More As I Lay Dying Tabs

Hits: 7324
Rated: 1.33 out of 5 (3 votes)
Updated: 2004-08-05 07:37:27

 

By:

sendpm.gif

email.gif

Important note
This tab is available online because we obtained explicit permission from As I Lay Dying or their label.


#----------------------------------PLEASE NOTE---------------------------------#
#This file is the author's own work and represents their interpretation of the #
#song. You may only use this file for private study, scholarship, or research. #
#Unless specified otherwise, this is NOT an official tab from the band members.#
#------------------------------------------------------------------------------#

  Visit MetalTabs.com for more metal tablature
  
Band:  (As I Lay Dying)
Album: (Frail Words Collapse)
Song:  (Song 10)




Transcribed By: (STATIKDETH)
Email:          (blinkman808@aol.com)

ok, this is like my favorite band ever. it took me a long time to tabs this
and im pretty sure its correct. you can listen to the song for timing and
wut notif you have any complaints E-mail me at my stupid e mail adress.


h  - hammer on
p  - pull off
t  - tap
*  - palm mute
,  - slight palm mute
"  - tremolo note
~  - let ring
Tunning D A D G B E


    repeat this riff a few times in a clean channel
|----2---------2---2---2-----2-----------2-2-2-2-2----2---------2---2---2--
|----3---------3---3---3-----3-----------3-3-3-3-3----3---------3---3---3--
|----2---------2---2---2-----2-----------2-2-2-2-2----2---------2---2---2--
|-------------------------2~----2-2-2-2------------------------------------
|-3~---3-3-3-3---3---3------------------------------3~--3-3-3-3---3---3----
|--------------------------------------------------------------------------


(continued from above)
----------------------------|
|---------------------------|
|---------------------------|
|-2-2222222-00000000--------|
|---------------------------|
|---------------------------|


gtr  2 plays this over lapping the first riff (d tuning,) (listen for timing)
|-------------------------------------------------------------------------|
|-------------------------------------------------------------------------|
|-------------------------------------------------------------------------|
|-------------------------------------------------------------------------|
|-------------------------------------------------------------------------|
|-0----000000004-----4444444440----0000000004444444444222222220-----------|


after that plays 4 a while, this riff comes in
|-------------------------------------------------------------------|
|--33------33------------33-----------------------------------------|
|------22------2h4p2----------22---2h4p2--2h4p2---------------------|
|-------------------------------------------------------------------|
|-------------------------------------------------------------------|
|-------------------------------------------------------------------|


while that plays, after the snare drum stops, then gtr. 2 comes back in
with this... ( repeats  until next riff

|-------------------------------------------------------------------|
|-------------------------------------------------------------------|
|-------------------------------------------------------------------|
|-------------------------------------------------------------------|
|-------------------------------------------------------------------|
|-4~--4~--0~--0~--4~--4~--0~--0~------------------------------------|


im not sure if this is rite or not, so if you want to change it go ahead


|-----7-----9----9---------------------------------------------------|
|----7-7-----9----9--------------------------------------------------|
|---7---7-----9----9--(repeat this twice)----------------------------|
|--7-----------------------------------------------------------------|
|--------------------------------------------------------------------|
|--------------------------------------------------------------------|

this  is where all the distortion comes in, my favorite part!!


gtr 1 this is played a few times    (RIFF A)
|-------------------------------------------------------------------|
|-------------------------------------------------------------------|
|-------------------------------------------------------------------|
|--6--66--2---6--66--2----6666666666666666-6--66--2-----------------|
|--6--66--2---6--66--2----6666666666666666-6--66--2-----------------|
|--4--44--0---4--44--0----4444444444444444-4--44--0-----------------|
      **         **                           **


  and then somewhere  around there, this comes in, im not sure where though

   gtr. 2
|-------------------------------------------------------------------|
|-------------------------------------------------------------------|
|-------------------------------------------------------------------|
|-5554440005554400455555555555555555544400055544004555555555555555--|
|-------------------------------------------------------------------|
|-------------------------------------------------------------------|


 then riff a is played again


and then some stuff repeats a few times and then its like the end
of the song. im not listening to it, so it might have some parts missing,
ill come back later some time and fix it well its like four rin the mornin'
 and im a new member so i think ill go to sleep now!!!!

                         !!!AS I LAY DYING RULES!!!

  Visit MetalTabs.com for more metal tablature

bottom separator

Contact Us | Privacy Policy | Disclaimer | Legal Notice
Copyright © 2001-2014 MetalTabs.com. All Rights Reserved.