top separator

Home

Forum

What's New

Submit a Tab

FAQ

Links

Contact Us

Link to Us

MetalTabs.com logo

Bands

0-9

A

B

C

D

E

F

G

H

I

J

K

L

M

N

O

P

Q

R

S

T

U

V

W

X

Y

Z

Search

What

Where
 

Suffocation - "Liege Of Inveracity" Guitar Tab

Plain Text Version
More Suffocation Tabs

Hits: 13584
Rated: 4.25 out of 5 (24 votes)
Updated: 2004-08-05 07:33:41

 

By:

johnmansley

sendpm.gif

email.gif

Important note
This tab is available online because we obtained explicit permission from Suffocation or their label.


#----------------------------------PLEASE NOTE---------------------------------#
#This file is the author's own work and represents their interpretation of the #
#song. You may only use this file for private study, scholarship, or research. #
#Unless specified otherwise, this is NOT an official tab from the band members.#
#------------------------------------------------------------------------------#

  Visit MetalTabs.com for more metal tablature
  
Band:  Suffocation
Album: Effigy Of The Forgotten
Song:  Liege Of Inveracity

Copyright (c)  (Roadrunner) (1991)
Version 1.0 - (17/07/04)

Transcribed By: John Mansley
Email:          john@smansley.freeserve.co.uk


.  - palm mute           /  - slide up to
\  - slide down to       ~  - vibrato
h  - hammer on           b  - Bend
p  - pull off            Suffixes for bend
t  - tap                 f  - full bend    h - half bend
ph - pinched harmonic    q  - quarter bend t - tap bend
*  - see comment         ^  - Hold bend    r release bend
x  - Stuccatto           ~  - vibrato bend
,  - slight palm mute    () - ghost note, sustained note
"  - tremolo note        <> - Trill
nh - natural harmonic    .  - (above note) staccato

Notes : Firstly, I was about half way through tabbing this song when
        Chris Rezendes posted his version of it but I decided to
        submit mine anyway for two reasons:

           1. It's quite a bit different to Chris' tab
           2. My tab has the solos included.

        Secondly, I used Chris' tab to point me in the right
        direction with the parts that I hadn't got up to tabbing yet
        so thanks go to him in helping me get the bugger submitted
        slightly ahead of schedule.

        Thirdly, as Chris stated on his tab, there is the high
        possiblity that one guitar is tuned to C while the other is
        tuned to C#.  I originally started tabbing the song in C#
        but I changed to C after I saw Chris' tab so thanks again!

Tuning: C F A# D# G C


Intro:

|-------------|
|-------------|
|-------------|
|-------------|
|-6--5--4--3--|
|-4--3--2--1--|
  .  .  .


Riff A1:

|-----------------|-----------------|
|-----------------|-----------------|
|-----------------|-----------------|
|-----------------|-----------------|
|-7-6-6-6-7-6-6-6-|-7-6-6-6-4-3-6-7-|
|-5-4-4-4-5-4-4-4-|-5-4-4-4---------|
  . . . . . . . .   . . . . . . . .


Riff A2:

|-----------------|-----------------|
|-----------------|-----------------|
|-----------------|-----------------|
|-----------------|-----------------|
|-4-3-3-3-4-3-3-3-|-4-3-3-3-1-0-3-4-|
|-2-1-1-1-2-1-1-1-|-2-1-1-1---------|
  . . . . . . . .   . . . . . . . .


Riff B:

|-------------|-------------------|-----------------|
|-------------|-------------------|-----------------|
|-------------|-------------------|-----------------|
|----7--------|-------------5-----|---------"-"-----|
|-6--5--7--6--|-7-6-6-6-3-4---6-5-|-"-"-"-"-3-4-"-"-|
|-4-----5--4--|-5-4-4-4-------4-3-|-1-2-1-5-----5-4-|
  .  .  .  .    . . . . . .   . .   . . . . . . . .

|-----------------|-----------------|
|-----------------|-----------------|
|-----------------|-----------------|
|-----6-----5-----|-------------"-"-|
|-6-5-4-5-4-3-4-3-|-"-"-"-"-"-"-3-4-|
|-4-3---3-2---2-1-|-1-2-1-2-4-5-----|
  . .   . .   . .   . . . . . . . .


Riff C:

|-----------------|-----------------|
|-------"-"-------|-----------------|
|-------5-5-------|-----------------|
|-"-6-"-----"-6-"-|---"-----"-"-"---|
|-4---7-----4---7-|-"-5-"-"-6-7-6-"-|
|-----------------|-3---6-4-------8-|


Riff D:                                             ______________
                                                               1,3|
|----------------|----------------|----------------|---------------|
|----------------|----------------|----------------|---------------|
|----------------|----------------|----------------|---------------|
|----------------|----------------|----------------|-----5------4--|
|-3---4---4--3---|-4---4--3---4---|-3---4---4--3---|-4---3--4---2--|
|-1-0-2-0-2--1-0-|-2-0-2--1-0-2-0-|-1-0-2-0-2--1-0-|-2-0----2-0----|
  . . . .    . .   . .    . . . .   . . . .    . .   . .    . .
 ________________
              2,4|
|-----------------|
|-----------------|
|-----------------|
|-----------------|
|-3---3-4-7-6-4-3-|
|-1-0-1-2-5-4-2-1-|
  . . . . . . . .


Riff E:                              _________________

|-----------------|-----------------|-----------------|
|-----------------|-----------------|-----------------|
|-----------------|-----------------|-------8-7-------|
|-----------------|-----------------|-----------8-7---|
|-4\3-----6---6---|-5---5---6---6---|-3-5-6---------5-|
|-2\1-3-3---3---3-|---3---3---3---3-|-----------------|
      . .   .   .     .   .   .   .   . . .     . . .
 _______________  _________________________________
             1,3|                               2,4|
|----------------|-----------------|----------------|
|----------------|-----------------|----------------|
|----------------|-----------------|----------------|
|-7---8----------|-----------------|----------------|
|---5-----5---6~-|-"-"-"-"-"-"-"-"-|-3-2-----5---6~-|
|-------3---3----|-0-0-1-1-4-4-1-1-|-----5-4---3----|
    .   .   .      . . . . . . . .   . . . .   .


Riff F: (listen to the CD for the precise rhythm)

|-------------------|----------------|----------------------|
|-------------------|----------------|----------------------|
|-------------------|----------------|----------------------|
|-------------------|----------------|----------------------|
|-2--22-3/4\3-2--22-|-3/4\3-6--3-2-3-|-2--22-3/4\3-2-3-2222-|
|-0--00-1/2\1-0--00-|-1/2\1-4--1-0-1-|-0--00-1/2\1-0-1-0000-|
     ..          ..         .             ..         . ....

|----------------|----------------------|-----------------------|
|----------------|----------------------|-----------------------|
|----------------|----------------------|---------------"-------|
|-------4--------|----------------------|---------------2-------|
|-6-2-3-2-2-3333-|-2--22-3/4\3-6--3-2-3-|-2--22-3/4\3-2---3-2-3-|
|-4-0-1---0-1111-|-0--00-1/2\1-4--1-0-1-|-0--00-1/2\1-0---1-0-1-|
            ....      ..       .             ..


Riff G:

|------------------|---------------------|
|------------------|---------------------|
|------------------|---------------------|
|-4-----3----------|-4-----3-4\3-----3---|
|-2-5-4-1-3-4-3434-|-2-5-4-1-2\1-3/4-1-3-|
|---3-2---1-2-1212-|---3-2-------1/2---1-|
    . .   . . ....     . .


Riff H:           ________________  ________________
                           1,3,5,7|                2|
|----------------|-----------------|-----------------|
|----------------|-----------------|-----------------|
|----------------|-----------------|-----------------|
|----------------|-----------------|-----3p2-----3-2-|
|-4----4---4---5-|---5---6---6-4-5-|---5-----3-4-----|
|-2--2---2---3---|-3---4---4---2-3-|-3---------------|
     . . . . . .   . . . . . .       . .     . .
 ________________  ________________
              4,8|                6|
|-----------------|-----------------|
|-----------------|-----------------|
|-----6p5-----6-5-|-----------------|
|---------6-7-----|-----4p3-----4-3-|
|---5-------------|---5-----4-5-----|
|-3---------------|-3---------------|
  . .     . .       . .     . .


Solo Backing:

|-----------------|-----------------|
|-----------------|-----------------|
|-----------------|-----"-----"-"---|
|-----"-----------|-----3-----3-2---|
|-"-"-4-"-"-2-1-"-|-"-"---"-"-----"-|
|-0-0---1-1-----3-|-4-4---3-3-----1-|


Solo 1: The last bar of this is played over the first bar of Riff I.


|---------12------------------|---------17-------------------|
|-------13--13----------------|-------18---18-------17-16----|
|-----12------12-----17-16-13-|-----17-------17--------------|
|-14------------15------------|-19-------------18---------15-|
|-----------------------------|------------------------------|
|-----------------------------|------------------------------|


|---------12------------------|
|-------13--13----------------|
|-----12------12-----17-16-13-|
|-14------------15------------|
|-----------------------------|
|-----------------------------|


|---------------------------------------------------------|
|------------------------------------151618-161819-181921-|
|-111314-131416-171614-161719-171920----------------------|
|---------------------------------------------------------|
|---------------------------------------------------------|
|---------------------------------------------------------|


|-23bh---23bh~~--23222019-16171920-23222019-|
|-------------------------------------------|
|-------------------------------------------|
|-------------------------------------------|
|-------------------------------------------|
|-------------------------------------------|


|-16171920-23222019-23222019-23232323-|
|-------------------------------------|
|-------------------------------------|
|-------------------------------------|
|-------------------------------------|
|-------------------------------------|


|-23222019-16171920-23222019-------------------|
|----------------------------22211918----------|
|-------------------------------------22211918-|
|----------------------------------------------|
|----------------------------------------------|
|----------------------------------------------|


|-------------------------------------------------------|
|-------------------------------------------------------|
|-------------------------------------------------------|
|-22211918----------------------17182021201817----------|
|----------20191716\14/16171920----------------20191716-|
|-------------------------------------------------------|

  ph
|-------------------|
|-17bh--~~~---------|
|-------------------|
|-------------------|
|-------------------|
|-------------------|


Riff I:            ________________________________
                                                1,3|
|-----------------|-----------------|---------------|
|-----------------|-----------------|-"-"-----------|
|-----------------|-----------------|-6-5-"-"-------|
|-----------------|-----------------|-----6-7-"-"-"-|
|-5\4-----5-4-----|-6-5-----7-6-4-3-|---------4-3-3-|
|-3\2-222-----5-4-|-----6-5-----2-1-|---------------|
      ... . . . .   . . . . . . . .           . . .
 ________________________________
                              2,4|
|-----------------|---------------|
|-----------------|-"-"-----"-"-"-|
|-----------------|-8-7-"-"-7-6-6-|
|-----------------|-----7-8-------|
|-6-5-----7-6-6-7-|---------------|
|-----6-5-----4-5-|---------------|


Riff J:                                  _____________
                                                   1,3|
|------------|-------------|------------|--------------|
|------------|-------------|------------|--------------|
|------------|-------------|------------|-----------ph-|
|------------|-------------|------------|--------------|
|-4--3--5--3-|-44--3--5--3-|-4--3--5--3-|-7-8-7--6--5~-|
|-2--1--3--1-|-22--1--3--1-|-2--1--3--1-|-5-6-5--4-----|
  .  .  .  .   ..  .  .  .   .  .  .  .   . .    .
 _________________
               2,4|
|------------------|
|------------------|
|------.--11/12\11-|
|-9/10\9-----------|
|----------9/10\-9-|
|-7/-8\7-----------|


Rhy. Fill 1:

|-------------|
|-------------|
|-------------|
|----7--------|
|-6--5--7--6--|
|-4-----5--4--|
  .  .  .  .


Solo 2:

|-----------12--------16-15----------------|
|---------12--12---12-------17-16-13-12----|
|-------12------12----------------------12-|
|-----14-----------------------------------|
|-15---------------------------------------|
|------------------------------------------|


|-----8-14p11~-------14h17p14~-------16h19p16~-|
|---10-------------15--------------17----------|
|-11-------------16--------------18------------|
|--------------16--------------18--------------|
|----------------------------------------------|
|----------------------------------------------|


|-----------12--------16-15----------------|
|---------12--12---12-------17-16-13-12----|
|-------12------12----------------------12-|
|-----14-----------------------------------|
|-15---------------------------------------|
|------------------------------------------|


|-----8-14p11~-------14h17p14~-------16h19p16~-|
|---10-------------15--------------17----------|
|-11-------------16--------------18------------|
|--------------16--------------18--------------|
|----------------------------------------------|
|----------------------------------------------|


|-23bh---23bhrbh~--23-22-------|----------21------------------------|
|------------------------24-21-|-17-20-17----20-17-16-19------------|
|------------------------------|-------------------------17-15-12---|
|------------------------------|----------------------------------14|
|------------------------------|------------------------------------|
|------------------------------|------------------------------------|

                                    * w/whammy bar flutter
|----------------------------------|----------------------------20\-|
|----------------------------------|-------------------*------------|
|---------16151413--------19181716-|---------21201918-19------------|
|-12131415--------14151617---------|-16171819-----------------------|
|----------------------------------|--------------------------------|
|----------------------------------|--------------------------------|


Rhy. Fill 2:

|-----------------|
|-----------------|
|-----------------|
|-----------------|
|-3-4-5\4-3-4-5\4-|
|-1-2-3\2-1-2-3\2-|
  . .     . .


Riff K:

|-----------------|-----------------|-----------------|
|-----------------|-----------------|-----------------|
|-----"-"---------|-----------------|-------------"-"-|
|-----1-0---------|-------------4\3-|---"-"-------1-0-|
|-"-"-----"-"-"-"-|-4-4-3-4-4-5-2\1-|-"-0-1-"-"-"-----|
|-2-1-----4-3-0-1-|-2-2-1-2-2-3-----|-2-----3-2-1-----|
  . . . . . . . .   . . . . . .       . . . . . . . .

|-------------------|-----------------|-----------------|
|-------------------|-----------------|-----------------|
|-------------------|-------------"-"-|-----------------|
|-------------3/4\3-|-----3-------1-0-|-----------------|
|-"-"-"-"-5-4-1/2\1-|-5-4-1-3-"-"-----|-"-"-"-"-4-4-3-4-|
|-4-3-0-1-3-2-------|-3-2---1-2-1-----|-4-3-0-1-2-2-1-2-|
  . . . . . .         . .   . . . . .   . . . . . . . .

|-----------------|-----------------|-------------------|
|-----------------|-----------------|-------------------|
|-----------------|-----"-"---------|-------------------|
|-----4\3---"-"---|-----1-0---------|-----3/4\3-----3---|
|-4-5-2\1-"-0-1-"-|-"-"-----"-"-"-"-|-5-4-1/2\1-5-4-1-3-|
|-2-3-----2-----3-|-2-1-----4-3-0-1-|-3-2-------3-2---1-|
  . .     . . . .   . . . . . . . .   . .       . .   .


Ending:

|----------------|
|----------------|
|----------------|
|-.--------------|
|-2--------------|
|-0--------------|




Song Structure:

Intro
Riff A1       (x2)
Riff A2       (x2)
Riff A1       (x2)
Riff A2       (x2)
Riff B
Riff C        (x4)
Riff D
Riff E
Riff F        (x2)
Riff G        (x4)
Riff H
Solo Backing  (x4)  (w/Solo 1)
Riff I
Riff J
Rhy. Fill 1
Solo Backing  (x4)  (x/Solo 2)
Riff I
Riff J
Rhy. Fill 2
Riff K
Ending


It should all be there but due to the production and the
complexity of the song it is bound to be not completely accurate.
Anyway, please feel free to send me any comments, corrections
or suggestions.

Also, I encourage you to register a rating that reflects the
quality of this tab.  The only way I know that a tab needs
improving or not is if people give it an accurate rating.
Thanks in advance.


END

  Visit MetalTabs.com for more metal tablature

bottom separator

Contact Us | Privacy Policy | Disclaimer | Legal Notice
Copyright © 2001-2014 MetalTabs.com. All Rights Reserved.