top separator

Home

Forum

FAQ

Contact Us

Link to Us

MetalTabs.com logo

Bands

0-9

A

B

C

D

E

F

G

H

I

J

K

L

M

N

O

P

Q

R

S

T

U

V

W

X

Y

Z

Therion - "The Blood of Kingu" Guitar Tab

Plain Text Version
More Therion Tabs

Hits: 3514
Rated: 3.00 out of 5 (7 votes)
Updated: 2004-07-16 05:21:19

By:


#----------------------------------PLEASE NOTE---------------------------------#
#This file is the author's own work and represents their interpretation of the #
#song. You may only use this file for private study, scholarship, or research. #
#Unless specified otherwise, this is NOT an official tab from the band members.#
#------------------------------------------------------------------------------#

  Visit MetalTabs.com for more metal tablature
  
Band:  Therion
Album: Sirius B
Song:  The Blood Of Kingu

Copyright (c)  Nuclear Blast 2004
Version 1.0  15.07.2004

Transcribed By: Yegorikhin Nick
Email:          hargell@nm.ru

Tunning E A D G B E
*  - see comment
.  - palm mute


Riff A  (0:21)
6|----------------------------------------------------|
5|6-6-6-6-6-6-7-7-7-7-7-7-6-6-6-6-6-6-4-4-4--2-2-2-|
4|8-8-8-8-8-8-9-9-9-9-9-9-8-8-8-8-8-8-6-6-6--4-4-4-|
3|----------------------------------------------------|
2|----------------------------------------------------|
1|----------------------------------------------------|
    . . . . .    . . . . .    . . . . .    . .    . .


Riff B  (0:55)
|-------------------------4------------------------|
|1-1-1-1-1-11-1*---1-2-1--1--1-1-1-11--2-2-2-2-2|
|3--------------------------3-3-3-3-3--4-4-4-4-4|
|3-----------------------------3-3-3-3-3--4-4-4-4-4|
|--------------------------------------------------|
|--------------------------------------------------|
   . . . . . . .               . . . .    . . . .

|-------------------------7------------------------|
|4-4-4-4-4-44-4*---4-5-4--4--5-5-5-55--2-2-2-2-2|
|6--------------------------7-7-7-7-7--4-4-4-4-4|
|6-----------------------------7-7-7-7-7--4-4-4-4-4|
|--------------------------------------------------|
|--------------------------------------------------|
   . . . . . . .               . . . .    . . . .

Solo on riff A   (1:17)
|-------|    |----------------------------------------|
|------|    |--------------------------------------|
|6-8-6-9| x7 |9-86-4-6-4-3-------------------------|
|-------|    |----------------------------------------|
|-------|    |----------------------------------------|
|-------|    |----------------------------------------|

Riff C   (2:24)
|---------------------------------------------------------------------|
|6-6-6-6-6--8-8-8-8-8-8--9-9-9-9-9-11-11-11-11-11--9-9-9-9-9-88-8-8-8|
|8---------10-----------11---------13-------------11--------10--------|
|---------------------------------------------------------------------|
|---------------------------------------------------------------------|
|---------------------------------------------------------------------|
   . . . .    . . . . .    . . . .     .  .  .  .    . . . .   . . . .

Riff D Chours   (2:47)
|------------4-4-4-4----------------------------------|
|4-4-4-4-----6-6-6-6-x3-7-7-7-7-----2-2-22----------|
|6-6-6-6-x3--6-6-6-6-----9-9-9-9-x3--4-4-44-x3-------|
|6-6-6-6-----------------9-9-9-9-----4-4-4-4----------|
|-----------------------------------------------------|
|-----------------------------------------------------|
 . . .       . . .       . . .       . . .


Song Structure:
Riff A x6              (0:21)
Riff B x2              (0:55)
Riff A x4 + solo x4 (1:17)
Riff A x4           (1:40)
Riff B x2           (2:02)
Riff C x2           (2:24)
Riff D x2           (2:47)
Riff A x4           (3:09)
Riff B x2           (3:31)
Riff C x2           (3:54)
Riff D x2           (4:16)
Orchestral stuff    (4:38)

* - to the end of the beet (on the words "Gaze into your soul")

END

  Visit MetalTabs.com for more metal tablature

bottom separator

Contact Us | Privacy Policy | Disclaimer
Copyright © 2001-2014 MetalTabs.com. All Rights Reserved.