top separator

Home

Forum

FAQ

Contact Us

Link to Us

MetalTabs.com logo

Bands

0-9

A

B

C

D

E

F

G

H

I

J

K

L

M

N

O

P

Q

R

S

T

U

V

W

X

Y

Z

Iron Maiden - "Children Of The Damned" Guitar Tab

Plain Text Version
More Iron Maiden Tabs

Hits: 5244
Rated: 3.50 out of 5 (4 votes)
Updated: 2004-07-15 11:50:11

By:

Lobotomy_victim


#----------------------------------PLEASE NOTE---------------------------------#
#This file is the author's own work and represents their interpretation of the #
#song. You may only use this file for private study, scholarship, or research. #
#Unless specified otherwise, this is NOT an official tab from the band members.#
#------------------------------------------------------------------------------#

  Visit MetalTabs.com for more metal tablature
  
Band:  Iron Maiden
Album: The Number of the Beast
Song:  Children of the Damned

Version 1.0 - (1982)

Transcribed By: Adam Young
Email:          The_burninator05@hotmail.com


.  - palm mute
s  - slide               ~  - vibrato
h  - hammer on           b  - Bend
p  - pull off
t  - tap
*  - see comment
x  - Stuccatto           b~ - vibrato bend
,  - slight palm mute    () - ghost note, sustained note
"  - tremolo note        <> - Trill

Tunning E A D G B E
  Intro(clean)
 Em                Gmaj                  Dmaj        Cmaj   Dmaj
|-0---0-----------------3-------------------3--------------------2--|
|-0-------------------3---3---3--------3------3---3-------1------3--|
|-0------0---0------0-------0-------------2-----2-------0-----2-----|   X2
|-2--------2-------------------------0----------------2-----0-------|
|-2-------------------------------------------------3---------------|
|-0---------------3-------------------------------------------------|

intro solo
|------------------------------------------------------------------------------|
|--------------------------------------------------------------8-7h8p7---7-----|
|----------------------------------------------------------7-9---------9---7-9~|
|--------------7-9-7----9----7--------9--7--5--4h5p4-----9---------------------|
|---7~--7-9-10-------5----10----9--7~----------------5-------------------------|
|------------------------------------------------------------------------------|

Verse
|-0---0---------------------------|
|-0-----0------------0--------0---|
|-0-------0--------0--------0-----|
|-2---------2----2--------4-------|  a few times
|-2------------3--------5---------|
|-0-------------------------------|

Chorus
|-------------------------------------------|
|-------------------------------------------|
|--9-9---4-4-------5-5---77-----------------|
|--9-9---4-4-------5-5---77-----------------|  X4
|--7-7---2-2--0-2--3-3---55------------2----|
|----------------------------5-5---3-2-0----|

   [Chorus]

   [Verse]

|---------------------|------------------------|
|---------------------|*----------------------*|
|---14--12--11--7---9-|----7----5----7----9----|
|---14--12--11--7---9~|----7----5----7----9----|
|---12--10--9---5---7~|*---5----3----5----7---*|
|---------------------|------------------------|



|-------------------|-----------------|--------------------|
|-------------------|-----------------|--------------------|
|-------------------|-----------------|--------------------|
|-------4-5-4-------|------4-5-4------|-----4-5-4----4-----|
|--7-----------7-5--|--7---------7-5--|--7---------7----5~-|

|-------------------------------------------------------------------|
|-------------------------------------------------------------------|
|--9---11-12-11--9-----------------------------9---11b12--9b11--7b9-|
|-------------------12--9~--10s12--10--9--12------------------------|
|-------------------------------------------------------------------|
|-------------------------------------------------------------------|

Solo
|-----------------------------------------------------|
|-----------------------------------------------------|
|--9~--------9s12----12-11--9-1111~----11--97h8-----|
|-------------------------------------------------9---|
|-----------------------------------------------------|
|-----------------------------------------------------|

|--19p15---19p15---19p15---19p15-----19p15----19p15----19p15----19p15------|
|*-------17-------17------17--------17--------17-------17-------17-------17--*|
|-----------------------------------------------------------------------------|
|-----------------------------------------------------------------------------|
|*---------------------------------------------------------------------------*|
|-----------------------------------------------------------------------------|

|--17p14----17p14----17p14----17p14----17p14----17p14----17p14-----17p14------|
|*-------15-------15-------15-------15-------15-------15-------15--------15--*|
|-----------------------------------------------------------------------------|
|-----------------------------------------------------------------------------|
|*---------------------------------------------------------------------------*|
|-----------------------------------------------------------------------------|

|--15p12----15p12----15p12----15p12------17p14----17p14----17p14----17p14---|
|--------13-------13-------13-------13---------15-------15-------15-------15|
|---------------------------------------------------------------------------|
|---------------------------------------------------------------------------|
|---------------------------------------------------------------------------|
|---------------------------------------------------------------------------|

bit after solo
|------------------------------------------------------------------|
|------------------------------------------------------------------|
|------------------------------------------------------------------|
|------7-9-7----------7-9-7---------7-9-7----------7-9-7-----------|
|--10~-------10-9-10--------10-10-9-------10-9-----------10-9-10---|
|----------------------------------------------10------------------|

|----------------------------------------------------------|
|----------------------------------------------------------|
|--9----7--------------9--------------------------9--------|
|--9----7----5----7----9--------------------------9--------|
|--7----5----5----7----7--------------------------7--------|
|------------3----5----0-----------------------------------|

  Visit MetalTabs.com for more metal tablature

bottom separator

Contact Us | Privacy Policy | Disclaimer
Copyright © 2001-2014 MetalTabs.com. All Rights Reserved.