top separator

Home

Forum

What's New

Submit a Tab

FAQ

Links

Contact Us

Link to Us

MetalTabs.com logo

Bands

0-9

A

B

C

D

E

F

G

H

I

J

K

L

M

N

O

P

Q

R

S

T

U

V

W

X

Y

Z

Search

What

Where
 

Dying Fetus - "Kill Your Mother / Rape Your Dog" Guitar Tab

Plain Text Version
More Dying Fetus Tabs

Hits: 13618
Rated: 1.43 out of 5 (7 votes)
Updated: 2004-08-23 16:07:31

 

By:

sendpm.gif

email.gif

Important note
This tab is available online because we obtained explicit permission from Dying Fetus or their label.


#----------------------------------PLEASE NOTE---------------------------------#
#This file is the author's own work and represents their interpretation of the #
#song. You may only use this file for private study, scholarship, or research. #
#Unless specified otherwise, this is NOT an official tab from the band members.#
#------------------------------------------------------------------------------#

  Visit MetalTabs.com for more metal tablature
  
[ D Y I N G    F E T U S ]
Album: Killing on Adrenaline
Song: Kill Your Mother, Rape Your Dog
Tabber: KALVA
Contact: kalva_dm@hotmail.com | kalva@grindcore.net


Down one step, to C
Tune: (C-A-C-G-B-E)

Riff Intro
E-|-----------------|
B-|-----------------|
G-|-----------------|
C-|-----------------|
A-|-0-0-10--00-0-0--|
C-|-0-0-10--00-0-0--|
    . . ..  .. . .

Riff 1
E-|--------------------------|
B-|--------------------------|
G-|--------------------------|
C-|--------------------------|
A-|-6-010-4-010-6-010-4-010--|
C-|-6-010-4-010-6-010-4-010--|
      ...   ...   ...   ...

Riff 2
E-|-----------------------------------|
B-|-----------------------------------|
G-|-----------------------------------|
C-|-KILL!---KILL!---KILL!---KILL!-----|
A-|-22------22------22------22--------|
C-|---664466--664466--664466--664466--|

Play Riff 1 x 1
Then Riff 2 x 1
Then Riff 1 x 1
Then Riff 2 x 1
Then Riff 1 x 1
Then Riff 2 x 1

Riff 3
Guitar 1
E-|---------------------------------12^-----12^----|x4
B-|---------------------------------12^-----12^----|
G-|---------------------------------12^-----12^----|
C-|------------------------------------------------|
A-|-2---5-2----222-55-2---22-5-2--------0-------0--|
C-|-2---5-2-00-222-55-2-0-22-5-2-0------0-------0--|
            ..          .        .

Guitar 2
E-|---------------------------------12^-----12^----|
B-|---------------------------------12^-----12^----|
G-|---------------------------------12^-----12^----|
C-|------------------------------------------------|
A-|-------------------------------------0-------0--|
C-|-------------------------------------0-------0--|

Play Riff Intro
Then Riff 1 x 2
Then Riff 2 x 1
Then Riff 1 x 1
Then Riff 2 x 1
Then Riff Intro

- GAME OVER -

  Visit MetalTabs.com for more metal tablature

bottom separator

Contact Us | Privacy Policy | Disclaimer | Legal Notice
Copyright © 2001-2014 MetalTabs.com. All Rights Reserved.