top separator

Home

Forum

What's New

Submit a Tab

FAQ

Links

Contact Us

Link to Us

MuSpy.com

MetalTabs.com logo

Bands

0-9

A

B

C

D

E

F

G

H

I

J

K

L

M

N

O

P

Q

R

S

T

U

V

W

X

Y

Z

Search

What

Where
 

Dying Fetus - "Judgement Day" Guitar Tab

Plain Text Version
More Dying Fetus Tabs

Hits: 3002
Rated: 1.67 out of 5 (3 votes)
Updated: 2004-07-14 04:36:43

 

By:

sendpm.gif

email.gif

Important note
This tab is available online because we obtained explicit permission from Dying Fetus or their label.


#----------------------------------PLEASE NOTE---------------------------------#
#This file is the author's own work and represents their interpretation of the #
#song. You may only use this file for private study, scholarship, or research. #
#Unless specified otherwise, this is NOT an official tab from the band members.#
#------------------------------------------------------------------------------#

  Visit MetalTabs.com for more metal tablature
  
[ D Y I N G   F E T U S ]
Song: Judgment Day
Album: Killing On Adrenaline
Transcribed by: KALVA
Contact: kalva_dm@hotmail.com | kalva@grindcore.net
-- www.dying-fetus.cjb.net --Dying Fetus Fan Site (Spanish)

TUNE: (D-A-D-G-B-e)

Riff 1
E-|-----------------------------|x7
B-|-----------------------------|
G-|-----------------------------|
C-|-----------------------------|
A-|-2------3---2---3---3-2-6-5--|
C-|-2--0-0-3-0-2-0-3-0-3-2-6-5--|
       . .   .   .   .
Riff 2
E-|----------------------------------|x2
B-|----------------------------------|
G-|----------------------------------|
C-|-----------------------------2----|
A-|------------------------------2---|
C-|-2222002222330033-2222002222---5--|
    ................ ..........

Riff 3
E-|-------------------|x2
B-|-------------------|
G-|-------------------|
C-|-----455------42---|
A-|-222-233--222-205--|
C-|-222------222---5--|
        ...      ...

Riff 4
E-|-------------------------|x4
B-|-------------------------|
G-|-------------------------|
C-|-42---------4554---------|
A-|-2052-x-x-x-23322-x-x-x--|
C-|---52-x-x-x-----2-x-x-x--|
    ....       .....

Riff 5
E-|----------------------------------|x2
B-|----------------------------------|
G-|----------------------------------|
C-|-42---------22--------------22----|
A-|-205------22------22------22------|
C-|---5--2222----2222--552222----22--|

Play Riff 2 x 2
Then Riff 5 x 2
Then Riff 1 x 6

Riff 6
E-|-----------------------------|x4
B-|-----------------------------|
G-|-----------------------------|
C-|-----------------------------|
A-|-x-2--x-3-x-2-x-3-x-3-2-6-5--|
C-|-x-2--x-3-x-2-x-3-x-3-2-6-5--|

- GAME OVER -

  Visit MetalTabs.com for more metal tablature

bottom separator

Contact Us | Privacy Policy | Disclaimer | Legal Notice
Copyright © 2001-2014 MetalTabs.com. All Rights Reserved.